Indiscipline (Tab)

From ETWiki
Jump to: navigation, search

Date Submitted: 28-Aug-97
By: Colin Marston (WrongWayCM at aol dot com)

Stick TAB

Indiscipline
by King Crimson

This is mainly taken from the live versions.

opening riff:
D |---------------------------|
A |---------------------------|
E |---------------------------|
B |---------------------------|
F#|--15-15----15--15--15------|
C#|---------------------------|
C |==5==5=====5===5===5=======|
G |---------------------------|
D |---------------------------|
A |---------------------------|
E |---------------------------|
B |---------------------------|

builds to
D |---------------------------|
A |---------------------------|
E |---------------------------|
B |--14-14----14--14--14------|
F#|--15-15----15--15--15------|
C#|---------------------------|
C |==5==5=====5===5===5=======|
G |---------------------------|
D |---------------------------|
A |---------------------------|
E |---------------------------|
B |---------------------------|

builds to
D |---------------------------|
A |---------------------------|
E |--13-13----13--13--13------|
B |--14-14----14--14--14------|
F#|--15-15----15--15--15------|
C#|---------------------------|
C |==5==5=====5===5===5=======|
G |---------------------------|
D |---------------------------|
A |---------------------------|
E |---------------------------|
B |---------------------------|

builds to
D |---------------------------|
A |--12-12----12--12--12------|
E |--13-13----13--13--13------|
B |--14-14----14--14--14------|
F#|--15-15----15--15--15------|
C#|---------------------------|
C |==5==5=====5===5===5=======|
G |---------------------------|
D |---------------------------|
A |---------------------------|
E |---------------------------|
B |---------------------------|

main riff:

D |---------------------------|
A |---------------------------|
E |--17-17----17--17--17------|
B |---------------------------|
F#|--15-15----15--15--15------|
C#|---------------------------|
C |==9=====9=======(9)*=======|
G |-----5-----5--7----(5)*----|
D |---------------------------|
A |---------------------------|
E |---------------------------|
B |---------------------------|
*pick-up notes
note: melody notes only played on 2nd and 3rd "choruses"

other chorus bass line:
C |=================|
G |--6-----6-----2--|
D |-----3-----3-----|
A |-----------------|
E |-----------------|
B |-----------------|

verse riff (same as opening except bass changes after a couple times)
D |---------------------------------------------|
A |---------------------------------------------|
E |---------------------------------------------|
B |---------------------------------------------|
F#|--15-15----15--15--15----15-15----15--15--15-|
C#|---------------------------------------------|
C |==5==5=====5===5===5=====2==2=====2===2===2==|
G |---------------------------------------------|
D |---------------------------------------------|
A |---------------------------------------------|
E |---------------------------------------------|
B |---------------------------------------------|


Transcribed by Colin Marston
WrongWayCM at aol dot com
http://members.tripod.com/~c1jdk/wrong.htm
Views