Lament (Tab)

From ETWiki
Jump to: navigation, search

Date Submitted: 18-Apr-2013
By: Kent Heiner (kent dot heiner at gmail dot com)

Having puzzled over this song for many years, and having been unsatisfied with any 
transcription I had found, I was very pleased yesterday to arrive at the following 
solution. It is my opinion that a non standard tuning is heard on this track, at 
least in the first section. I arrived at this by degrees, first starting with E flat 
tuning (standard, lower by one half-step). then tuning the high E flat down to unison 
with the second (B flat) string to get the effect heard on the recording. To make 
the fingering easier, I then tuned the fourth string up to E flat. The lower two 
strings aren't heard in the first section, but I found it pleasing to retune the 
fifth to make the overall tuning an open E flat minor. 
Try it for yourself and see if you agree.   
Tuning (low to high): Eb - Bb - Eb - Gb - Bb - Bb

            5                6                7                8
  Bb |0-----0---------|0-----0---------|0-----0---------|0-----0---------|
  Bb |0-----0---------|0-----0---------|0-----0---------|0-----0---------|
  Gb |0-----0---------|0-----0---------|0-----0---------|0-----0---------|
  Eb |2-----1---------|0-----1---------|0-----0---------|0-----0---------|
  Bb |----------------|----------------|----------------|----------------|
  Eb |----------------|----------------|----------------|----------------|
 "I guess I've tried to show you how, I take the crowd with my guitar,

            9                10               11               12
  Bb |2-----2---------|2-----2---------|2-----2---------|2-----2---------|
  Bb |2-----2---------|2-----2---------|2-----2---------|2-----2---------|
  Gb |2-----2---------|2-----2---------|2-----2---------|2-----2---------|
  Eb |4-----3---------|2-----3---------|4-----3---------|2-----3---------|
  Bb |----------------|----------------|----------------|----------------|
  Eb |----------------|----------------|----------------|----------------|
     and businessmen would clap their hands, and clip another fat cigar.

            13               14               15               16
  Bb |3-----3---------|3-----3---------|3-----3---------|3-----3---------|
  Bb |3-----3---------|3-----3---------|3-----3---------|3-----3---------|
  Gb |3-----3---------|3-----3---------|3-----3---------|3-----3---------|
  Eb |5-----4---------|3-----4---------|5-----4---------|3-----4---------|
  Bb |----------------|----------------|----------------|----------------|
  Eb |----------------|----------------|----------------|----------------|
  And publishers would spread the  news, and print my music far and wide.

            17               18               19               20
  Bb |5-----5---------|5-----5---------|3-----3---------|----------------|
  Bb |5-----5---------|5-----5---------|3-----3---------|1---------------|
  Gb |5-----5---------|5-----5---------|3-----3---------|----------------|
  Eb |7-----6---------|5-----6---------|6-----4---------|------1---------|
  Bb |----------------|----------------|----------------|----------------|
  Eb |----------------|----------------|----------------|----------------|
     All the kids who play the blues,
                           would learn my licks with a bottleneck slide.


Date Submitted: 29-Jul-96
By: David Crossen (dc at scms dot rgu dot ac dot uk)

Here's a copy of the tab for "Lament" from OLGA. I fortunately had kept
a local copy. I think OLGA has shut down at Nevada and I haven't found any
mirrors anywhere. If you spot OLGA anywhere send me the address please.
As it says, this tab was produced by Scott Lillis and Kurt Colville.
I don't necessarily agree with it. Particularly at the beginning I think
the chords are fuller than just twin notes.

            1                2
  E |----------------|----------------|
  B |2-----2---------|2-----2---------|
4 G |3-----3---------|3-----3---------|
4 D |3-----2---------|1-----2---------|
  A |4-----4---------|4-----4---------|
  E |----------------|----------------|

Also the two chords which show up at several points in the song
(e.g. bars 53 and 54) don't sound quite right to me.

Anyway here it is...

Good luck,

Dave Crossen  dc at scms dot rgu dot ac dot uk


---------------------------------------------------------------------------

                      "Lament" by King Crimson


The pattern for the lead for the first 38 measures, except where
indicated, is:

    ||     |     |   ||     |     |   |  That is, a dotted quarter,
    ||     |     |   ||     |     |   |  then a dotted quarter
    |/.    /.____/   |/.    /.____/   |  tied to a quarter.

                      -----------------------
            1                2                3                4
  E |----------------|----------------|----------------|----------------|
  B |----------------|----------------|----------------|----------------|
4 G |3-----3---------|3-----3---------|3-----3---------|3-----3---------|
4 D |3-----2---------|1-----2---------|3-----2---------|1-----2---------|
  A |----------------|----------------|----------------|----------------|
  E |----------------|----------------|----------------|----------------|



            5                6                7                8
    |----------------|----------------|----------------|----------------|
    |----------------|----------------|----------------|----------------|
    |3-----3---------|3-----3---------|3-----3---------|3-----3---------|
    |3-----2---------|1-----2---------|3-----2---------|1-----2---------|
    |----------------|----------------|----------------|----------------|
    |----------------|----------------|----------------|----------------|

    "I guess I tried to show you how, I'd take the crowd with my guitar,


            9                10               11               12
    |----------------|----------------|----------------|----------------|
    |----------------|----------------|----------------|----------------|
    |5-----5---------|5-----5---------|5-----5---------|5-----5---------|
    |5-----4---------|3-----4---------|5-----4---------|3-----4---------|
    |----------------|----------------|----------------|----------------|
    |----------------|----------------|----------------|----------------|

     and businessmen would clap their hands, and clip another fat cigar.


            13               14               15               16
    |----------------|----------------|----------------|----------------|
    |----------------|----------------|----------------|----------------|
    |6-----6---------|6-----6---------|6-----6---------|6-----6---------|
    |6-----5---------|4-----5---------|6-----5---------|4-----5---------|
    |----------------|----------------|----------------|----------------|
    |----------------|----------------|----------------|----------------|

  And publishers would spread the  news, and print my music far and wide.

            17               18               19               20
    |----------------|----------------|----------------|----------------|
    |----------------|----------------|----------------|----------------|
    |8-----8---------|8-----8---------|6-------6-------|4-------4-------|
    |8-----7---------|6-----7---------|6-------5-------|4-------3-------|
    |----------------|----------------|----------------|----------------|
    |----------------|----------------|----------------|----------------|

                                       (notice, two tied quarters here)

     All the kids who play the blues,
                           would learn my licks with a bottleneck slide.

            21               22               23               24
    |----------------|----------------|----------------|----------------|
    |----------------|----------------|----------------|----------------|
    |3-----3---------|3-----3---------|3-----3---------|3-----3---------|
    |3-----2---------|1-----2---------|3-----2---------|1-----2---------|
    |----------------|----------------|----------------|----------------|
    |----------------|----------------|----------------|----------------|

                                      But now it seems the bubble's burst,

            21               22               23               24
    |----------------|----------------|----------------|6-7-9-7---6-----|
    |----------------|----------------|----------------|------------7---|
    |----------------|----------------|----------------|--------------6-|
    |----------------|----------------|----------------|----------------|
    |----------------|----------------|----------------|----------------|
    |----------------|----------------|----------------|----------------|

        (Here, the guitar doubles in 24 what the violin plays in 22.)

            25               26               27               28
    |----------------|----------------|----------------|----------------|
    |----------------|----------------|----------------|----------------|
    |3-----3---------|3-----3---------|5-----5---------|5-----5---------|
    |3-----2---------|1-----2---------|5-----4---------|3-----4---------|
    |----------------|----------------|----------------|----------------|
    |----------------|----------------|----------------|----------------|

   although you know there was a time, when love songs gathered in my head,

           25               26               27               28
    |----------------|----------------|----------------|8-9-11--9-8-----|
    |----------------|----------------|----------------|------------9---|
    |----------------|----------------|----------------|--------------8-|
    |----------------|----------------|----------------|----------------|
    |----------------|----------------|----------------|----------------|
    |----------------|----------------|----------------|----------------|

     (Again, guitar doubling in 28 what the violin plays in 26.
      Note that the third note is an "11" (a D#), not two 1's.)

            29               30               31               32
    |----------------|----------------|----------------|----------------|
    |----------------|----------------|----------------|----------------|
    |5-----5---------|5-----5---------|6-----6---------|6-----6---------|
    |5-----4---------|3-----4---------|6-----5---------|4-----5---------|
    |----------------|----------------|----------------|----------------|
    |----------------|----------------|----------------|----------------|

    with poetry in every line.  And strong men strove to hold the doors,

            33               34               35               36
    |----------------|----------------|----------------|----------------|
    |----------------|----------------|----------------|----------------|
    |6-----6---------|6-----6---------|8-----8---------|8-----8---------|
    |6-----5---------|4-----5---------|8-----7---------|6-----7---------|
    |----------------|----------------|----------------|----------------|
    |----------------|----------------|----------------|----------------|

  While with my friends I passed that age, when people stomped on dirty
floors,

            37               38
    |----------------|----------------|
    |----------------|----------------|
    |6-------6-------|4-------4-------| (Again, these are tied quarters.)
    |6-------5-------|4-------3-------|
    |----------------|----------------|
    |----------------|----------------|

     before I trod the rock 'n roll stage..."

The rhythm for measures 39-52, in 6/4 time, is two dotted quarters, a
quarter, and four eighth notes:

  ||     |     |   |\\|\\|\\|\\|
  ||     |     |   | | | | |
  |/.    /.    /   / / / / |

              39                       40
  |-------------------------|-------------------------|
  |-------------------------|-------------------------|
6 |-------------------------|-------------------------|
4 |--------------------3\\2-|--------------------2\\1-|
  |----------------4\\3-----|----------------3\\2-----|
  |2-----2-----2------------|2-----2-----2------------|

              41                       42
  |-------------------------|-------------------------|
  |-------------------------|-------------------------|
  |-------------------------|-------------------------|
  |--------------------1/2--|--------------------4\\3-|
  |----------------3\\2-----|----------------4\\3-----|
  |2-----2-----2------------|2-----2-----2------------|

              43                       44
  |-------------------------|-------------------------|
  |-------------------------|-------------------------|
  |-------------------------|-------------------------|
  |--------------------3\\2-|--------------------2\\1-|
  |----------------3\\2-----|----------------3\\2-----|
  |2-----2-----2------------|2-----2-----2------------|


              45                       46
  |-------------------------|-------------------------|
  |-------------------------|-------------------------|
  |-------------------------|-------------------------|
  |--------------------1\\0-|--------------------6\\5-|
  |----------------3\\2-----|----------------5\\4-----|
  |2-----2-----2------------|2-----2-----2------------|


             47                       48
  |-------------------------|-------------------------|
  |-------------------------|-------------------------|
  |-------------------------|-------------------------|
  |--------------------5\\4-|--------------------4\\3-|
  |----------------4\\3-----|----------------5\\4-----|
  |4-----4-----4------------|4-----4-----4------------|

              49                       50
  |-------------------------|-------------------------|
  |-------------------------|-------------------------|
  |-------------------------|-------------------------|
  |--------------------3\\2-|--------------------4\\3-|
  |----------------5\\4-----|----------------4\\3-----|
  |4-----4-----4------------|4-----4-----4------------|

              51                       52
  |-------------------------|-------------------------|
  |-------------------------|-------------------------|
  |-------------------------|-------------------------|
  |--------------------3\\2-|--------------------2\\1-|
  |----------------3\\2-----|----------------3\\2-----|
  |2-----2-----2------------|2-----2-----2------------|

                    53                               54
    |--------0------------------------|----0---------------------------|
    |r-------4------------------------|r---3-----------------------r---|
 8  |e-------4------------------------|e---1-----------------------e---|
 4  |s-------4-------------------1\\0-|s---0-----------------------s---|
    |t-----------------------3\\2-----|t---------------------------t---|
    |---------------------------------|--------------------------------|

Now the rhythm becomes, in 8/4 time, a quarter, two dotted quarters, a

tied half, and four eighth notes.

     |   |     |     |   |   |\\|\\|\\|\\
     |   |     |     |   |   | | | |
     /   /.    /.    /___/   / / / /

                    55                               56
    |--------------------------------|--------------------------------|
    |--------------------------------|--------------------------------|
 8  |--------------------------------|--------------------------------|
 4  |----3-----2-----1-----------0/1-|----1-----2-----3----------4\\3-|
    |------------------------4\\3----|-----------------------5\\4-----|
    |2-------------------------------|2-------------------------------|

"I'll thank the man who'e on the phone and if he has the time to spend."


                    57                               58
    |--------------------------------|--------------------------------|
    |--------------------------------|--------------------------------|
    |--------------------------------|--------------------------------|
    |----3-----2-----1-----------0/1-|----1-----2-----3----------6\\5-|
    |------------------------4\\3----|-----------------------5\\4-----|
    |2-------------------------------|2-------------------------------|

"The problem I'll explain once more and indicate a sum to lend."

                    59                               60
    |--------------------------------|--------------------------------|
    |--------------------------------|--------------------------------|
    |--------------------------------|--------------------------------|
    |----5-----4-----3-----------2/3-|----3-----4-----5----------7\\6-|
    |------------------------5\\4----|-----------------------6\\5-----|
    |4-------------------------------|4-------------------------------|

"That ten percent is now a joke.    Maybe thirty, even thirty-five."

                    61                               62
    |--------------------------------|--------------------------------|
    |--------------------------------|--------------------------------|
    |--------------------------------|--------------------------------|
    |----6-----5-----4------1\\0-3/4-|----4-----5-----6----------7\\6-|
    |--------------------------------|-----------------------6\\5-----|
    |5-------------------------------|5-------------------------------|

"I'll say my daddy's had a stroke, he'd have one now if he only was alive."

                    63                               64
    |--------0-----------------------|----0---------------------------|
    |r-------4-----------------------|r---3-----------------------r---|
 8  |e-------4-----------------------|e---1-----------------------e---|
 4  |s-------4-----------------------|s---0-----------------------s---|
    |t-------------------------------|t---------------------------t---|
    |--------------------------------|--------------------------------|

The drums now pound out something in 4/4 like this:

|   |   |\\|\\|\\|\\ /quarter\\|
/   /   / / / /  \\ rest  /|


At the same time, the guitar plays this, all notes sustained throughout:

          65               66               67               68
  |----------------|----------------|----------------|----------------|
  |----------------|----------------|----------------|----------------|
4 |----------------|----------------|----------------|----------------|
4 |3-----2-----1---|--0-------------|------0-----1---|--2-----3---4---|
  |----------------|--------4-3-2-3-|4---------------|----------------|
  |----------------|----------------|----------------|----------------|

          69               70               71               72
  |----------------|----------------|----------------|----------------|
  |----------------|----------------|----------------|----------------|
  |----------------|----------------|----------------|----------------|
  |3-----2-----1---|--0-------------|------0-----1---|--2-----3---4---|
  |----------------|--------4-3-2-3-|4---------------|----------------|
  |----------------|----------------|----------------|----------------|

          73               74               75               76
  |----------------|----------------|----------------|----------------|
  |----------------|----------------|----------------|----------------|
  |----------------|----------------|----------------|----------------|
  |5-----4-----3---|--2-----1-0---0-|1-----2-----3---|--4-----5---6---|
  |----------------|------------4---|----------------|----------------|
  |----------------|----------------|----------------|----------------|

          77               78               79               80
  |----------------|----------------|----------------|----------------|
  |----------------|----------------|----------------|-------------r--|
  |----------------|----------------|----------------|-------------e--|
  |7-----6-----5---|--4-----3-2-1-2-|3-----4-----5---|--6-----7---8s--|
  |----------------|----------------|----------------|-------------t--|
  |----------------|----------------|----------------|----------------|


                    81                               82
    |--------0-----------------------|----0---------------------------|
    |r-------4-----------------------|r---3-----------------------r---|
 8  |e-------4-----------------------|e---1-----------------------e---|
 4  |s-------4-----------------------|s---0-----------------------s---|
    |t-------------------------------|t---------------------------t---|
    |--------------------------------|--------------------------------|

Just as before, all notes are sustained.  Please note that "11\\0"
and "13\\2" denote pull-offs from 11 to 10 (not 0) and 13 to 12,
resp., while "10/11" denotes the usual hammer-on from 10 to 11.  Distortion
plays a big part of the sound here, so let 'em ring.  Also, the rhythm gets
very tricky.  Hammer-ons and pull-offs should be rather subtle.

          83               84               85               86
  |-----------------|----------------|----------------|----------------|
  |--11\\0--10--11--|--10-/11----11--|--11\\0--10--11-|--10-/11----11--|
4 |-----------------|----------------|----------------|----------------|
4 |11----11--11-----|11--------11----|11----11--11----|11--------11----|
  |-----------------|----------------|----------------|----------------|
  |-----------------|----------------|----------------|----------------|

          87               88               89               90
  |----------------|----------------|------12--------|----------------|
  |--11--11----11--|--11--11----11--|--11--------11--|--11--11----11--|
  |----------------|----------------|----------------|----------------|
  |11--------11----|11--------11----|11--------11----|11--------11----|
  |----------------|----------------|----------------|----------------|
  |----------------|----------------|----------------|----------------|

         91                92               93               94
  |------------------|----------------|-----------------|-----------------|
  |--13\\2--12--13-13|--12----13--12--|--13-13--12--13--|12--13--12--12-13|
  |------------------|----------------|-----------------|-----------------|
  |13----13--13------|13----13--13----|13-----13--13--13|--13--13---------|
  |------------------|----------------|-----------------|-----------------|
  |------------------|----------------|-----------------|-----------------|

         95               96               97               98
  |----------------|-----------------|----------------|----------------|
  |--14--14--14--14|14--14--14--14-14|--14--14--14--14|14--14--14--14--|
  |----------------|-----------------|----------------|----------------|
  |14--14--14--14--|--14--14--14-----|14--14--14--14--|--14--14--14--14|
  |----------------|-----------------|----------------|----------------|
  |----------------|-----------------|----------------|----------------|

                    99                               100
    |--------0-----------------------|----0---------------------------|
    |r-------4-----------------------|r---3-----------------------r---|
 8  |e-------4-----------------------|e---1-----------------------e---|
 4  |s-------4-----------------------|s---0-----------------------s---|
    |t-------------------------------|t---------------------------t---|
    |--------------------------------|--------------------------------|

[then last verse with heavy distortion guitar playing God knows what!]
"I like the way you look at me. . . Say when you want to go and dance all
night"

This is the basic rhythm for the ending(it's actually broken down farther in
to 7/16, but this is easier to write, moreover the drums seem to be doing
something in 7/4, which makes the melody sound more off beat.)

  ________  ________  |
7 | | | _|  | _| | |  |
- | | |  |  |  | | |  |
8 / / /  /  /  / / /  |



_____  ____  _____  |
| | |  |__|  | | |  |
| | |  |  |  | | |  |
/ / /  /  /  / / /  |

This is the tab:
Guitar(in 7/8):(2nd fret position)

----------------------------|----------------------------|
----------------------------|----------------------------|
----------------------------|----------------------------|
--------2---4-------2---4---|--------2---4-------2---4---|
----3-------------3---------|----3-----------3-----------|
2-------------2-------------|2-------------2-------------|

do 2x(at 2nd fret pos.) then transpose up 2 frets

do 1x(at 4th fret pos.) then transpose up 2 frets

do 1x(at 6th fret pos.)

=====================

This tablature was figure out and edited by
Scott Lillis: sl4q+ at andrew dot cmu dot edu
&


Date Submitted: 1-Jan-97
By: Reginald Hunt (rphunt at tiac dot com)

"Lament" from the King Crimson album "Starless and Bible Black"
Transcribed by Reginald Hunt
Fripp part
Note: "3P2" means play fret 3 then pull off to 2
      "3H4" means play fret 3 then hammer on to 4
      "/5 " means slide up to 5th fret


Leslie'd guitar chords for 1st two verses, in 4/4*******************************
  1  2   3  4   1  2   3  4
--------------|--------------|
T-2----2------|-2----2-------| 1st verse, repeated 4 times
A-3----3------|-3----3-------| 2nd verse, repeated 3 times
B-3----2------|-1----2-------|
--------------|--------------|
--------------|--------------|


  1  2   3  4   1  2   3  4
--------------|--------------|
T-4----4------|-4----4-------|  repeated 2 times
A-5----5------|-5----5-------|
B-5----4------|-3----4-------|
--------------|--------------|
--------------|--------------|
  1  2   3  4   1  2   3  4
--------------|--------------|
T-5----5------|-5----5-------|  repeated 2 times
A-6----6------|-6----6-------|
B-6----5------|-4----5-------|
--------------|--------------|
--------------|--------------|


  1  2   3  4   1  2   3  4
--------------|--------------|
T-7----7------|-7----7-------|
A-8----8------|-8----8-------|
B-8----7------|-6----7-------|
--------------|--------------|
--------------|--------------|


  1  2   3  4   1  2   3  4
--------------|---------------||
T-5----5------|-3----3--------|| Return to beginning
A-6----6------|-4----4-------*|| for 2nd verse.
B-6----5------|-4----3-------*||
--------------|---------------||
--------------|---------------||

Changes to 6/4, faster tempo  **************************************************

  1    2    3         1    2    3        1    2    3         1    2    3
--------------------|------------------|-------------------|-------------------|
T-------------------|------------------|-------------------|-------------------|
A-------------------|------------------|-------------------|-------------------|
B---------------3P2-|--------------2P1-|---------------1H2-|---------------4P3-|
------------3P2-----|-----------3P2----|-----------3P2-----|-----------3P2-----|
--2--2---2----------|-2--2---2---------|-2--2---2----------|-2--2---2----------|




  1    2    3         1    2    3        1    2    3         1    2    3
--------------------|------------------|-------------------|-------------------|
T-------------------|------------------|-------------------|-------------------|
A-------------------|------------------|-------------------|-------------------|
B---------------3P2-|--------------2P1-|---------------1P0-|---------------6P5-|
------------3P2-----|-----------3P2----|-----------3P2-----|-----------5P3-----|
--2--2---2----------|-2--2---2---------|-2--2---2----------|-2--2---2----------|




  1    2    3         1    2    3        1    2    3         1    2    3
--------------------|------------------|-------------------|-------------------|
T-------------------|------------------|-------------------|-------------------|
A-------------------|------------------|-------------------|-------------------|
B---------------5P4-|--------------4P3-|---------------3P2-|---------------4P3-|
------------5P4-----|-----------5P4----|-----------5P4-----|-----------3P2-----|
--4--4---4----------|-4--4---4---------|-4--4---4----------|-4--4---4----------|





  1    2    3         1    2    3
--------------------|------------------|
T-------------------|------------------|
A-------------------|------------------|
B---------------3P2-|--------------2P1-|
------------3P2-----|-----------3P2----|
--2--2---2----------|-2--2---2---------|






Changes to 4/4, same tempo

  1  2  3  4    1  2  3   4     1  2  3  4     1  2  3  4
--------0-----|---------------|----0---------|--------------|
T-------4-----|---------------|----3---------|--------------|
A-------x-----|---------------|----1---------|--------------|
B-------4-----|-----------1P0-|----2---------|--------------|
--------2-----|-------3P2-----|----2---------|--------------|
--------------|---------------|--------------|--------------|





  1  2  3   4    1   2   3   4     1  2  3    4    1  2  3   4
---------------|-----------------|---------------|---------------|
T--------------|-----------------|---------------|---------------|
A--------------|-----------------|---------------|---------------|
B----3----2----|-1-----------0H1-|----1-----2----|-3---------4P3-|
---------------|---------3P2-----|---------------|-------3P2-----|
--2------------|-----------------|-2-------------|---------------|




  1  2  3   4    1   2   3   4     1  2  3    4    1  2  3   4
---------------|-----------------|---------------|---------------|
T--------------|-----------------|---------------|---------------|
A--------------|-----------------|---------------|---------------|
B----3----2----|-1-----------0H1-|----1-----2----|-3---------6P5-|
---------------|---------3P2-----|---------------|-------5P4-----|
--2------------|-----------------|-2-------------|---------------|






  1  2  3   4    1   2   3   4     1  2  3    4    1  2  3   4
---------------|-----------------|---------------|---------------|
T--------------|-----------------|---------------|---------------|
A--------------|-----------------|---------------|---------------|
B----5----4----|-3-----------2H3-|----3-----4----|-5---------7P6-|
---------------|---------5P4-----|---------------|-------6P5-----|
--4------------|-----------------|-4-------------|---------------|





  1  2  3   4    1   2   3   4     1  2  3    4    1  2  3   4
---------------|-----------------|---------------|---------------|
T--------------|-----------------|---------------|---------------|
A--------------|-----------------|---------------|---------------|
B----6----5----|-4-----------3H4-|----4-----5----|-6---------7P6-|
---------------|---------6P5-----|---------------|-------6P5-----|
--5------------|-----------------|-5-------------|---------------|






  1  2  3  4    1  2  3   4     1  2  3  4     1  2  3  4
--------0-----|---------------|----0---------|----------------|
T-------4-----|---------------|----3---------|----------------|
A-------x-----|---------------|----1---------|-------------10-|
B-------4-----|---------------|----2---------|----------------|
--------2-----|---------------|----2---------|-------------8--|
--------------|---------------|--------------|----------------|





Instrumental section after 3rd verse *******************************************

  1  2  3    4      1  2    3   4     1  2  3    4      1  2   3    4
------------------|-----------------|-----------------|-------------------|
T-----------------|-----------------|-----------------|-------------------|
A----9-----8------|-7-----6-5-4-5-6-|----7-----8------|-9--10-----11---10-|
B-----------------|-----------------|-----------------|-------------------|
-----7-----6------|-5-----4-3-2-3-4-|----5-----6------|-7--8------9----8--|
------------------|-----------------|-----------------|-------------------|






  1  2  3    4      1  2    3   4     1  2  3    4      1  2   3    4
------------------|-----------------|-----------------|-------------------|
T-----------------|-----------------|-----------------|-------------------|
A----9-----8------|-7-----6-5-4-5-6-|----7-----8------|-9--10-----11---12-|
B-----------------|-----------------|-----------------|-------------------|
-----7-----6------|-5-----4-3-2-3-4-|----5-----6------|-7--8------9----10-|
------------------|-----------------|-----------------|-------------------|



  1  2  3    4      1  2    3   4     1  2  3    4      1  2   3    4
------------------|-----------------|-----------------|-------------------|
T-----------------|-----------------|-----------------|-------------------|
A----11----10-----|-9-----8-7-6-7-8-|----9-----10-----|-11--12----13---14-|
B-----------------|-----------------|-----------------|-------------------|
-----9-----8------|-7-----6-5-4-5-6-|----7-----8------|-9---10----11---12-|
------------------|-----------------|-----------------|-------------------|






  1  2  3    4      1  2    3   4     1  2  3    4      1  2   3    4
------------------|-----------------|-----------------|-------------------|
T-----------------|-----------------|-----------------|-------------------|
A----13----12-----|-11---10-9-8-9-10|----11----12-----|-13--14------------|
B-----------------|-----------------|-----------------|-------------------|
-----11----10-----|-9-----8-7-6-7--8|----9-----10-----|-11--12------------|
------------------|-----------------|-----------------|-------------------|





  1  2  3  4    1  2  3   4     1  2  3  4     1  2  3  4
--------0-----|---------------|----0---------|----------------|
T-------4-----|---------------|----3---------|----------------|
A-------x-----|---------------|----1---------|----------------|
B-------4-----|---------------|----2---------|----------------|
--------2-----|---------------|----2---------|----------------|
--------------|---------------|--------------|----------------|





Second instrumental section after 3rd verse ************************************

  1     2     3     4       1     2     3     4
-----------17-------------|----17-------------17----|
T-------------------------|-------------------------| repeat 2 times
A----15-------------15----|-------------15----------|
B-------------------------|-------------------------|
--16----16-------16-------|-16----16-------16-------|
--------------------------|-------------------------|
 Let notes ring as chords.............................



  1     2     3     4       1     2     3     4
-----------18-------------|----18-------------18----|
T-------------------------|-------------------------|
A----15-------------15----|-------------15----------|
B-------------------------|-------------------------|
--16----16-------16-------|-16----16-------16-------|
--------------------------|-------------------------|
......................................................





  1     2     3     4       1     2     3     4
--------------------18----|----------18-------------|
T----------17-------------|-------------------------|
A----15-------------------|----15-------------15----|
B-------------------------|-------------------------|
--16----16-------16-------|-16----16-------16-------|
--------------------------|-------------------------|
......................................................




  1     2     3     4       1     2     3     4
-----------19-------------|----19-------------19----|
T-------------------------|-------------------------|
A----17-------------17----|-------------17----------|
B-------------------------|-------------------------|
--18----18-------18-------|-18----18-------18-------|
--------------------------|-------------------------|
......................................................





  1     2     3     4       1     2     3     4
-----------19-------------|-19----------19----------|
T-------------------------|-------------------------|
A----17-------------17----|-------17-------17----17-|
B-------------------------|-------------------------|
--18----18-------18----18-|----------18-------18----|
--------------------------|-------------------------|
......................................................




  1     2     3     4       1     2     3     4
-----------21-------------|----21----21----21-------|
T-------------------------|-------------------------|
A-18----18----18----18----|-------------------18----|
B-------------------------|-------------------------|
-----19----------19----19-|-19----19----19-------19-|
--------------------------|-------------------------|
......................................................






  1     2     3     4       1     2     3     4
--------21----------------|-21----------21----------|
T-------------------------|-------------------------|
A-18-------------18----18-|-------18----------18----|
B-------------------------|-------------------------|
-----19-------19----19----|----19----19----19----19-|
--------------------------|-------------------------|
.....................................................*



  1  2  3  4    1  2  3   4     1  2  3  4     1  2  3  4
------------0-|---------------|----0---------|----------------|
T----------4--|---------------|----3---------|----------------|
A-------------|---------------|----1---------|----------------|
B-------------|---------------|----2---------|----------------|
--19-----2----|---------------|----2---------|----------------|
--------0-----|---------------|--------------|----------------|






Play with 4th verse ************************************************************

  1   2    3    4     1   2    3    4    1   2    3    4    1    2   3    4
--------------------|------------------|------------------|--------------------|
T-------------------|------------------|------------------|---17---------------|
A---------------17--|-------18---------|-------17---------|----------17--------|
B-------16----------|---16----------16-|---------------16-|---------------16---|
--------------------|------------------|------------------|--------------------|
------14-----14-----|-14--14-----14----|-----14-----14----|-14-----14--14------|

Let low E string ring..........................................................

  1   2    3    4     1   2    3    4    1   2    3   4     1    2   3    4
--------------------|------------------|------------------|--------------------|
T-------------------|-------17---------|------------------|--------------------|
A-----17------18----|-17---------17----|----------18------|------18------------|
B-------------------|------------------|--16--------------|-16-----------------|
--------------------|------------------|------------------|--------------------|
---14------14----14-|-----14---14------|14-----14-------14|----14--------------|

..............................................................................*





  1     2     3     4       1     2     3     4
-----------19-------------|----19-------------------|
T-------------------------|-------------19----------|
A----17-------------17----|-------------------------|
B-------------------------|-------------------------|
--18----18-------18-------|-18-------18---------18--|
--------------------------|-------------------------|
 Let notes ring as chords.............................



  1     2     3     4       1     2     3     4
--------------------------|----19-------------------|
T----------------18-------|-------------18----------|
A-------17----------------|----------------17----17-|
B-------------------------|-------------------------|
-----18-------18----18----|-18-------18-------18----|
--------------------------|-------------------------|
......................................................




  1     2     3     4       1     2     3     4
-----------21-------------|----------------------21-|
T-------------------------|----------20-------------|
A----18----------18----18-|----18-------18----18----|
B-------------------------|-------------------------|
--19----19----19----19----|-19----19-------19-------|
--------------------------|-------------------------|
......................................................





  1     2     3     4       1     2     3     4
--------------21----------|-------------21----------|
T-------------------------|-20----------------------|
A----18----18-------18----|-------18-------18-------|
B-------------------------|-------------------------|
--19----19-------19----19-|----19----19-------19----|
--------------------------|-------------------------|
.....................................................*





  1  2  3  4    1  2  3   4     1  2  3  4     1  2  3  4
--------0-----|---------------|----0---------|----------------|
T-------4-----|---------------|----3---------|----------------|
A-------x-----|---------------|----1---------|----------------|
B-------4-----|---------------|----2---------|----------------|
--------2-----|---------------|----2---------|----------------|
--------------|---------------|--------------|----------------|



Dance Break in 7 ***************************************************************

   1     2    3     4     5     6     7
---------------------------------------------|
T--------------------------------------------|
A--------------------------------------------|   Play 4 times
B-------------2-----4-----------2-----4------|
---------3-------------------3---------------|
---2-------------------2---------------------|


   1     2    3     4     5     6     7
---------------------------------------------|
T--------------------------------------------|
A--------------------------------------------|   Play 2 times
B-------------4-----6-----------4-----6------|
---------5-------------------5---------------|
---4-------------------4---------------------|


   1     2    3     4     5     6     7
---------------------------------------------||
T--------------------------------------------||
A--------------------------------------------||  Play 2 times
B-------------6-----8-----------6-----8------||
---------7-------------------7---------------||
---6-------------------6---------------------||

Views