VROOOM (Tab)

From ETWiki
Jump to: navigation, search

Date Submitted: 9-May-95
By: Aldo Brucale (vit0202 at iperbole dot bologna dot it)

VROOOM
(standard tuning)

Intro:

-|-12-11----11--8----------------------------------------|-
-|--------9----------12-11----11--8----------------------|-
-|----------------10--------8----------11-10----10--7----|-
-|----------------------------------10--------8----------|-
-|----------------------------------------------------10-|-
-|-------------------------------------------------------|-
    ^       ^        ^      ^       ^         ^       ^
    E       F        B      C       F#        G       D#    <- Bass

The main theme is played in major thirds you can play it on the 3rd & 4th
strings.

 1st Arpeggio:
(I only wrote the fingerings for the chords to be arpeggiated - listen to
the record for the timing.)

E-|--9-|-10-|-11-|-10-|--9-|-10-|-11-|-12-|-
B-|-11-|-11-|-11-|-11-|-11-|-11-|-11-|-11-|-
G-|-11-|-11-|-11-|-11-|-11-|-11-|-11-|-11-|-
D-|----|----|----|----|----|----|----|----|-
A-|----|----|----|----|----|----|----|----|-
E-|----|----|----|----|----|----|----|----|-

E-|-13-|-13-|-13-|-13-|-15-|-15-|-16-|-16-|-16-|-18-|-18-|-19-|-
B-|-15-|-17-|-17-|-17-|-17-|-18-|-20-|-20-|-20-|-20-|-20-|-20-|-
G-|-12-|-12-|-15-|-13-|-12-|-13-|-15-|-18-|-16-|-15-|-16-|-15-|-
D-|----|----|----|----|----|----|----|----|----|----|----|----|-
A-|----|----|----|----|----|----|----|----|----|----|----|----|-
E-|----|----|----|----|----|----|----|----|----|----|----|----|-

 2nd Arpeggio:

E-|----|----|----|----|----|----|----|----|-
B-|--9-|-10-|-11-|-10-|--9-|-10-|-11-|-12-|-
G-|-10-|-10-|-10-|-10-|-10-|-10-|-10-|-10-|-
D-|-11-|-11-|-11-|-11-|-11-|-11-|-11-|-11-|-
A-|----|----|----|----|----|----|----|----|-
E-|----|----|----|----|----|----|----|----|-

E-|----|----|----|----|----|----|----|----|-
B-|-13-|-13-|-13-|-13-|-16-|-16-|-16-|-16-|-
G-|-14-|-16-|-16-|-16-|-19-|-19-|-19-|-19-|-
D-|-12-|-12-|-15-|-14-|-17-|-16-|-16-|-15-|-
A-|----|----|----|----|----|----|----|----|-
E-|----|----|----|----|----|----|----|----|-

E-|-14-|-14-|-14-|-14-|-16-|-17-|----|----|-
B-|-16-|-18-|-18-|-18-|-18-|-21-|----|----|-
G-|-13-|-13-|-16-|-14-|-13-|-16-|----|----|-
D-|----|----|----|----|----|----|----|----|-
A-|----|----|----|----|----|----|----|----|-
E-|----|----|----|----|----|----|----|----|-

E-|-17-|-17-|-17-|-17-|-19-|-19-|-20-|----|-
B-|-21-|-21-|-21-|-21-|-21-|-21-|-21-|----|-
G-|-16-|-19-|-18-|-17-|-16-|-17-|-16-|----|-
D-|----|----|----|----|----|----|----|----|-
A-|----|----|----|----|----|----|----|----|-
E-|----|----|----|----|----|----|----|----|-

E-|-------20-|-18-17----17-14----------------------------------------|-
B-|----21----|-------15----------18-17----17-14----------------------|-
G-|-16-------|----------------16-------14----------17-16----16-13----|-
E-|----------|----------------------------------16-------14----------|-
E-|----------|----------------------------------------------------16-|-
E-|----------|-------------------------------------------------------|-

E-|--8--7-----7--4----------------------------------------|-
B-|--------5-----------8--7-----7--4-----7--6-------------|-
G-|-----------------6--------4--------6-----------6--3----|-
D-|--------------------------------------------4----------|-
A-|-----------------------------------------------------6-|-
E-|-------------------------------------------------------|-

E-|-10--9-----7--6----------------------------------------|-
B-|--------7----------10--9-----9--6----------------------|-
G-|-----------------8--------6-----------9--8-----8--5----|-
D-|-----------------------------------8--------6----------|-
A-|-----------------------------------------------------8-|-
E-|-------------------------------------------------------|-

...and then Marine 475 begins.
--

===Aldo Brucale=================vit0202 at iperbole dot bologna dot it===


Date Submitted: 13-May-97
By: George Korein (Mopobeans at aol dot com)

Here is VROOOM transcribed for bass by George Korein, who learned the song from
a guitar magazine transcription.

Figure the rhythms out from the recording...
I'm just writing the notes.

Intro:
G:------------------------------
D:---2---3---------4---5-----
A:-----------2---3---------6--
E:------------------------------

Pickup:

G:---------------------
D:---------------------
A:---------------------
E:---0---1---2---3--

A section:

G:------------------------------
D:------------------------------
A:-------1---2------------------
E:--3-3---------3---3---1---2---

Repeat a lot with occasional variations.

Variation A:
G:------------------------------
D:------------------------------
A:-------1---2------------------
E:--3-3---------3---3---/12\----

Variation B:

G:------------------------------
D:------------------------------
A:-------1---2------------------
E:--3-3---------3---0---1---2---

B section:

G:-------------------------------
D:-------------------------------
A:---7-7---7-7----7-7-4-5-6---
E:--------------------------------

For power, you can play the low E
in unison with the high E.

Repeat 3 times, then play a C and
let it ring a bit, and then resume the
A section. I am really not sure what
happens here, but what I just suggested
usually sounds OK.

After a bit...

G:-----------------
D:-----------------
A:-----------------
E:---8---8---8---(keep playing for two measures)

G:-----------------------------------------
D:-----------------------------------------
A:---7---7---7---7----9----9-9---9---10----
E:-----------------------------------------

Bass Solo Section 1

G:----13^15^13-----------------------
D:------------------12-11---12------
A:---------------------------------
E:----------------------------------

G:----------------------15--------
D:---------------11^13------14---
A:---9-11-13--------------------
E:--------------------------------

G:---------12----17--17---15---12^13^12--------
D:----------------------------------------15--
A:---10---------------------------------------
E:--------------------------------------------

G:-----------------15^17-----------------
D:----14^15--17------------14---15----
A:----------------------------------------------
E:----------------------------------------------

G:----------------12---------------------
D:----13---15---------------12--------
A:----------------------13--------------
E:----------------------------------------

G:-----------------18^20---------------------
D:----17^18--20-------------17--18---17----
A:------------------------------------------------
E:------------------------------------------------

The next four notes are actually stick notes an octave down.
If you have a five-string, use it.

G:--------------------
D:--1--2---3--4-------
A:--------------------
E:--------------------

Then resume main riff, then section B.
Section B this time goes straight into the "after a bit"
section, which is a little bit different this time.

After a Bit 2:

G:--------------------------------------------
D:--------------------------------------------
A:---------------------------------------7--9--
E:--8-(play for almost two measures)-9--------

G:----------------
D:----------------
A:--10--9--7-------
E:-------------8---

Bass Solo Section 2:

G:----------------------------------
D:--13^15^13-------------------
A:-----------------12--11--12---
E:----------------------------------

G:---------------------------------13----
D:----------------------------15----------
A:--------------------11^13-----------------
E:---- 9--11--13-------------------------

G:------------------------------17--19--21----
D:-----12--17--15--17--19--------------------
A:-----------------------------------------------
E:-----------------------------------------------

G:--20--------------------------------20--19----
D:------20--18--17--------17--18/20------------
A:-------------------18-----------------------
E:-------------------------------------------

G:-----------18--16-------------------------
D:--18---18------------19---18--15--16-------
A:-------------------------------------------
E:-------------------------------------------

G:-----------13-----------------11-----------
D:--14--16-------------12--14-------------11-
A:----------------14-----------------12------
E:-------------------------------------------

G:----------------12^14---------------19^21--
D:---10--12--14-----------18^19--21----------
A:-------------------------------------------
E:-------------------------------------------

G:----------------
D:---18--19--18---
A:----------------
E:----------------

Outro:

G:--------------------------
D:--------------------------
A:--1--2----------3--4------
E:---------1--2----------5--

G:--------------------------
D:--------------------------
A:--3--4----------5--6------
E:---------3--4----------7--

G:--------------------------
D:--------------------------
A:--5--6----------7--8------
E:---------5--6----------9--

For marine coda, just keep descending
chromatically from C. When you run out
of room, go up an octave. Ends on a C.


Date Submitted: 24-Nov-97
By: Martin van Wijk (wijk0035 at wxs dot nl)

|----------------|----------------|----------------|----------------|
|--------7-6-----|--------6-5-----|--------5-3-----|----------------|
|--------7-6-----|--------6-5-----|--------5-3-----|----------------|
|----------------|----------------|----------------|----------------|
|----------------|----------------|----------------|----------------|
|3---3-----------|----3-----------|----3-----------|----------------|


|----------------|----------------|----------------|----------------|
|--------7-6-----|--------6-4-----|--------4-3-----|----------------|
|--------7-6-----|--------6-4-----|--------4-3-----|----------------|
|----------------|----------------|----------------|----------------|
|----------------|----------------|----------------|----------------|
|3---3-----------|----3-----------|----3-----------|----------------|


|----------------|----------------|----------------|----------------|
|--------8-7-----|--------7-6-----|--------6-5-----|----------------|
|--------8-7-----|--------7-6-----|--------6-5-----|----------------|
|----------------|----------------|----------------|----------------|
|----------------|----------------|----------------|----------------|
|3---3-----------|----3-----------|----3-----------|----------------|


|----------------|----------------|----------------|----------------|
|--------7-6-----|--------6-5-----|--------5-3-----|----------------|
|--------7-6-----|--------6-5-----|--------5-3-----|----------------|
|----------------|----------------|----------------|----------------|
|----------------|----------------|----------------|----------------|
|3---3-----------|----3-----------|----3-----------|----------------|


|----------------|----------------|----------------|----------------|
|--------34-3----|--------3-2-----|--------2-1-----|----------------|
|--------34-3----|--------3-2-----|--------2-1-----|----------------|
|----------------|----------------|----------------|----------------|x2
|----------------|----------------|----------------|----------------|
|0---0-----------|----0-----------|----0-----------|----------------|


|-------------------------------------------------------------------|
|-------------------------------------------------------------------|
|--7-3------------3-4-5-------------3-4-----------------------------|
|--8-4------1-2-5-------------1-2-5-----5---------------------------|
|---------3-----------------3---------------------------------------|
|-------------------------------------------------------------------|
          bass-fill

Then the main riff again, but minus the second bars 5-8, followed by:

|-------------------------------------------------------------------|
|-------------------------------------------------------------------|
|--7-3---3-7---7---7-6---6---6-5---5---5-4--------------------------|
|--8-4---4-8--8----8-7--7----7-6--6----6-5--------------------------|
|-------------------------------------------------------------------|
|-------------------------------------------------------------------|


Date Submitted: 28-January-08
By: Chris

Intro:
|-12-11----11--8--------------------------------------------|
|--------9----------12-11----11--8--------------------------|
|----------------10--------8----------11-10----10--7--------|
|----------------------------------10--------8--------------|
|----------------------------------------------------10-----|
|-----------------------------------------------------------|


Main Riff:
|-15----18----13-----9--------------------------------------|
|-18b19-21b22-16b17-12b13-7-6--6-5--5-3--7-6--6-5--4-3------|
|-------------------------7-6--6-5--5-3--7-6--6-5--4-3------|
|-----------------------------------------------------------|
|-----------------------------------------------------------|
|-----------------------------------------------------------|

|-----------------------------------------------------------|
|-8-7--7-6--6-5--7-6--6-5--5-3--343--3-2--2-1-343--3-2--2-1-|
|-8-7--7-6--6-5--7-6--6-5--5-3--343--3-2--2-1-343--3-2--2-1-|
|-----------------------------------------------------------|
|-----------------------------------------------------------|
|-----------------------------------------------------------|


Date Submitted: 20-April-2010
By: Torwah

  King Crimson: VROOOM (Fripp's part)
  
  From: THRAK

  Transcribed by: Bartlomiej Hawrot (bartlomiej.von.hawrot@gmail.com)

 -----------------------------------------------------------------------------------------------



  Fripp's new standard tuning: C-G-D-A-E-G (from low to high)



 (00:28)

  |------------------|--------------|----------------|
  |-12-11-----11-8---|-7-6----6-3---|----------------|
  |-------11-------8-|-----6------3-|-9-8----8-5-----|
  |------------------|--------------|-----8------5~~-|
  |------------------|--------------|----------------|
  |------------------|--------------|----------------|


 (00:37)

  |-12...---15...---10...---7...-|
  |-14B15---17B18---12B13---9B10-|
  |------------------------------|
  |------------------------------|
  |------------------------------|
  |------------------------------|


 (00:46)

  |--------------------------|------------------------|
  |--------------------------|------------------------|
  |------9--8----8--7----7-5-|------9--8---8--6---6-5-|
  |-----12-11---11-10---10-8-|-----12-11---11-9---9-8-|
  |-0-0----------------------|-0-0--------------------|
  |--------------------------|------------------------|



  |---------------------------|--------------------------|
  |---------------------------|--------------------------|
  |-----10--9----9--8----8--7-|------9--8----8--7----7-5-|
  |-----13-12---12-11---11-10-|-----12-11---11-10---10-8-|
  |-0-0-----------------------|-0-0----------------------|
  |---------------------------|--------------------------|


                        2X|                       
  |-----------------------|-----------------------------------|
  |-----------------------|-----------------------------------|
  |-----5/6\5---5-4---4-3-|-5-1-------------------------------|
  |-----8/9\8---8-7---7-6-|-8-4-------------------------------|
  |-----------------------|------------0-3-4-5--------0-3-4-0-|
  |-4-4-------------------|------0-3-4----------0-3-4---------|



  |------------------------|---------------------------|
  |------------------------|---------------------------|
  |----9--8----8--7----7-5-|-----10--9----9--8----8--7-|
  |---12-11---11-10---10-8-|-----13-12---12-11---11-10-|
  |-0----------------------|-0-0-----------------------|
  |------------------------|---------------------------|



  |--------------------------|-----------------------------|
  |--------------------------|-----------------------------|
  |------9--8----8--7----7-5-|-5-1---1-5---5-4---4-3---3-2-|
  |-----12-11---11-10---10-8-|-8-4---4-8---8-7---7-6---6-5-|
  |-0-0----------------------|-----------------------------|
  |--------------------------|-----------------------------|


 (01:43)

  |-6-|-7-|-8-|-7-|-6-|-7-|-8-|-9-|
  |-6-|-6-|-6-|-6-|-6-|-6-|-6-|-6-|
  |-9-|-9-|-9-|-9-|-9-|-9-|-9-|-9-|
  |---|---|---|---|---|---|---|---|
  |---|---|---|---|---|---|---|---|
  |---|---|---|---|---|---|---|---|


                                                                           Arpeggio 
  |-10-|-10-|-10-|-10-|-12-|-12-|-13-|-13-|-13-|-15-|-15-|-16-|  ||-------------*---------*-||
  |-10-|-12-|-12-|-12-|-12-|-13-|-15-|-15-|-15-|-15-|-15-|-15-|  ||-----*-------------*-----||
  |-10-|-10-|-13-|-11-|-10-|-11-|-13-|-16-|-14-|-13-|-14-|-13-|  ||-*-------*-------*---*---||
  |----|----|----|----|----|----|----|----|----|----|----|----|  ||-------------------------||
  |----|----|----|----|----|----|----|----|----|----|----|----|  ||-------------------------||
  |----|----|----|----|----|----|----|----|----|----|----|----|  ||-------------------------||


 (02:27)

  |-15...---16...---18...-|
  |-17B18---18B19---20B21-|
  |-----------------------|
  |-----------------------|
  |-----------------------|
  |-----------------------|


 (02:33)

  |--------------------------|------------------------|
  |--------------------------|------------------------|
  |------9--8----8--7----7-5-|------9--8---8--6---6-5-|
  |-----12-11---11-10---10-8-|-----12-11---11-9---9-8-|
  |-0-0----------------------|-0-0--------------------|
  |--------------------------|------------------------|



  |---------------------------|--------------------------|
  |---------------------------|--------------------------|
  |-----10--9----9--8----8--7-|------9--8----8--7----7-5-|
  |-----13-12---12-11---11-10-|-----12-11---11-10---10-8-|
  |-0-0-----------------------|-0-0----------------------|
  |---------------------------|--------------------------|


  
                        2X|                       
  |-----------------------|-----------------------------|
  |-----------------------|-----------------------------|
  |-----5/6\5---5-4---4-3-|-5-1---1-5---5-4---4-3---3-2-|
  |-----8/9\8---8-7---7-6-|-8-4---4-8---8-7---7-6---6-5-|
  |-----------------------|-----------------------------|
  |-4-4-------------------|-----------------------------|


 (03:11)
                                                                       
  |-1-|-2-|-3-|-2-|-1-|-2-|-3-|-4-|-5-|-5-|-5-|-5-|--8-|--8-|--8-|--8-|
  |-1-|-1-|-1-|-1-|-1-|-1-|-1-|-1-|-5-|-7-|-7-|-7-|-10-|-10-|-10-|-10-|
  |-4-|-4-|-4-|-4-|-4-|-4-|-4-|-4-|-5-|-5-|-8-|-7-|-10-|--9-|--9-|--8-|
  |---|---|---|---|---|---|---|---|---|---|---|---|----|----|----|----|
  |---|---|---|---|---|---|---|---|---|---|---|---|----|----|----|----|
  |---|---|---|---|---|---|---|---|---|---|---|---|----|----|----|----|



  |-11-|-11-|-11-|-11-|-13-|-14-|-14-|-14-|-14-|-14-|-16-|-16-|-17-|
  |-11-|-13-|-13-|-13-|-13-|-16-|-16-|-16-|-16-|-16-|-16-|-16-|-16-|
  |-11-|-11-|-14-|-12-|-11-|-14-|-14-|-17-|-16-|-15-|-14-|-15-|-14-|
  |----|----|----|----|----|----|----|----|----|----|----|----|----|
  |----|----|----|----|----|----|----|----|----|----|----|----|----|
  |----|----|----|----|----|----|----|----|----|----|----|----|----|


 (04:09)

  |-------17-|-------------------|-----------------|---------------|
  |----14----|-18-17----17-14----|-13-12----12-9---|-8-7---7-4-----|
  |-14-------|------17--------14-|-------12------9-|-----7-----4~~-|
  |----------|-------------------|-----------------|---------------|
  |----------|-------------------|-----------------|---------------|
  |----------|-------------------|-----------------|---------------|



  |-------------------|--------------|---------------|
  |-------------------|--------------|---------------|
  |-15-14----14-11----|-10-9---9-6---|-5-4---4-1-----|
  |-------14-------11-|------9-----6-|-----4-----1~~-|
  |-------------------|--------------|---------------|
  |-------------------|--------------|---------------|


  |-------------------|-----------------|---------------|
  |-------------------|-----------------|---------------|
  |-17-16----16-13----|-12-11----11-8---|-7-6---6-3-----|
  |-------16-------13-|-------11------8-|-----6-----3~~-|
  |-------------------|-----------------|---------------|
  |-------------------|-----------------|---------------|



  --------------------------------------------------------------------------------------------------------------------------------


  B   -bend
  ... -hold
  ~~  -vibrato
  /   -slide up
  \   -slide down


 PS: 100% correct I think;)


Date Submitted: 11-May-2015
By: Phillip Trujeque (philliptrujeque at yahoo dot com)

-------------------------------------------------------------------------------
                                   "VROOOM"
                                 King Crimson
-------------------------------------------------------------------------------
Song: VROOOM
Artist: King Crimson
Album: THRAK - 1995
Guitarist: Robert Fripp
Transcribed by: Phil Trujeque
E-mail: Phil@Trujeque.com
youtube.com/c/thephilth

 Robert Fripp part
*New Standard Tuning: (Low to High) C-G-D-A-E-G

  Intro:
  6/8

  E          F        B        C        F#        G    Eb (Eb)
G|------------------|------------------|------------------|------------------||
E|12--11-----11--8--|-7--6-----6--3----|------------------|------------------||
A|-------11--------8|-------6-------3--|-9--8-----8--5----|------------------||
D|------------------|------------------|-------8-------5--|(5)---------------||
G|------------------|------------------|------------------|------------------||
C|------------------|------------------|------------------|------------------||

*******************************************************************************
  4/4

  G
G|----12------------|----15------------|----10------------|----6-------------||
E|----14b-----------|----17br----------|----12br----------|----8br-----------||
A|------------------|------------------|------------------|------------------||
D|------------------|------------------|------------------|------------------||
G|0-0------0-0------|0-0------0-0------|0-0------0-0------|0-0------0-0------||
C|------------------|------------------|------------------|------------------||

*******************************************************************************
  Main Theme

G|------------------|------------------||
E|------------------|------------------||
A|----9--8----8--7--|----7--5----------||
D|----12-11---11-10-|----10-8----------||
G|0-0------0-0------|0-0------0-0--/14\||
C|------------------|------------------||

G|------------------|------------------||
E|------------------|------------------||
A|----9--8-----8--6-|----6-5-----------||
D|----12-11----11-9-|----9-8-----------||
G|0-0------0-0------|0-0------0-0--/11\||
C|------------------|------------------||

G|------------------|------------------||
E|------------------|------------------||
A|----10-9----9--8--|----8--7----------||
D|----13-12---12-11-|----11-10---------||
G|0-0------0-0------|0-0------0-0------||
C|------------------|------------------||

G|------------------|------------------||
E|------------------|------------------||
A|----9--8----8--7--|----7--5----------||
D|----12-11---11-10-|----10-8----------||
G|0-0------0-0------|0-0------0-0------||
C|------------------|--------------/12\||

  2/4
G|---------|---------|---------|---------||
E|---------|---------|---------|---------||
A|----5/6-5|-----5--4|-----4--3|---------||
D|----8/9-8|-----8--7|-----7--6|---------||
G|---------|---------|---------|---------||
C|4-4------|---------|---------|-1-1-2-3-||

G|---------|---------|---------|---------||
E|---------|---------|---------|---------||
A|----5/6-5|-----5--4|-----4--3|---------||
D|----8/9-8|-----8--7|-----7--6|---------||
G|---------|---------|---------|---------||
C|4-4------|---------|---------|-1-1-2-3-||

G|---------|---------|---------|---------|--------||
E|---------|---------|---------|---------|--------||
A|-----5--1|---------|---------|---------|--------||
D|-----8--4|---------|---------|---------|--------||
G|---------|---------|-0-3-4---|---------|0-3-4-0-||
C|4--------|----0-3-4|-------0-|----0-3-4|--------||

*******************************************************************************
  4/4

G|------------------|------------------||
E|------------------|------------------||
A|----9--8----8--7--|----7--5----------||
D|----12-11---11-10-|----10-8----------||
G|0--------0-0------|0-0------0-0------||
C|------------------|------------------||

G|------------------|------------------||
E|------------------|------------------||
A|----10-9----9--8--|----8--7----------||
D|----13-12---12-11-|----11-10---------||
G|0-0------0-0------|0-0------0-0------||
C|------------------|------------------||

G|------------------|------------------||
E|------------------|------------------||
A|----9--8----8--7--|----7--5----------||
D|----12-11---11-10-|----10-8----------||
G|0-0------0-0------|0-0---------------||
C|------------------|------------------||
						     2/4
G|---------|---------|---------|---------|---------||-----||
E|---------|---------|---------|---------|---------||-R---||
A|--5-1----|--1-5----|--5-4----|--4-3----|--3-2----||--E--||
D|--8-4----|--4-8----|--8-7----|--7-6----|--6-5----||---S-||
G|---------|---------|---------|---------|---------||----T||
C|---------|---------|---------|---------|---------||-----||

*******************************************************************************
  7/8
 Note: See chord chart below

G|------6------6----|------7------7----|------8------8----|------7------7----||
E|--6------6--------|--6------6--------|--6------6--------|--6------6--------||
A|9---9---9---9-----|9---9---9---9-----|9---9---9---9-----|9---9---9---9-----||
D|------------------|------------------|------------------|------------------||
G|------------------|------------------|------------------|------------------||
C|------------------|------------------|------------------|------------------||

G|------6------6----|------7------7----|------8------8----|------9------9----||
E|--6------6--------|--6------6--------|--6------6--------|--6------6--------||
A|9---9---9---9-----|9---9---9---9-----|9---9---9---9-----|9---9---9---9-----||
D|------------------|------------------|------------------|------------------||
G|------------------|------------------|------------------|------------------||
C|------------------|------------------|------------------|------------------||

G|------10-----10---|------10-----10---|------10-----10---|------10-----10---||
E|--10-----10-------|--12-----12-------|--12-----12-------|--12-----12-------||
A|10--10--10--10----|10--10--10--10----|13--13--13--13----|11--11--11--11----||
D|------------------|------------------|------------------|------------------||
G|------------------|------------------|------------------|------------------||
C|------------------|------------------|------------------|------------------||

G|------12-----12---|------12-----12---|------13-----13---|------13-----13---||
E|--12-----12-------|--13-----13-------|--15-----15-------|--15-----15-------||
A|10--10--10--10----|11--11--11--11----|13--13--13--13----|16--16--16--16----||
D|------------------|------------------|------------------|------------------||
G|------------------|------------------|------------------|------------------||
C|------------------|------------------|------------------|------------------||

G|------13-----13---|------15-----15---|------15-----15---|------16-----16---||
E|--15-----15-------|--15-----15-------|--15-----15-------|--15-----15-------||
A|14--14--14--14----|13--13--13--13----|14--14--14--14----|13--13--13--13----||
D|------------------|------------------|------------------|------------------||
G|------------------|------------------|------------------|------------------||
C|------------------|------------------|------------------|------------------||

                     3/4
G|------16------16--|------16||
E|--15------15------|----15--||
A|13--13--13--13----|--13----||
D|------------------|--------||
G|------------------|--------||
C|------------------|--------||

*******************************************************************************
  4/4

  G
G|------------------|----15------------|----16------------|----17------------||
E|------------------|----17br-(1)------|----18br----------|----19br----------||
A|------------------|------------------|------------------|------------------||
D|------------------|------------------|------------------|------------------||
G|0-0------0-0------|0-0------0-0------|0-0------0-0------|0-0------0-0--/14\||
C|------------------|------------------|------------------|------------------||

*******************************************************************************
  Main Theme

G|------------------|------------------||
E|------------------|------------------||
A|----9--8----8--7--|----7--5----------||
D|----12-11---11-10-|----10-8----------||
G|0-0------0-0------|0-0------0-0--/14\||
C|------------------|------------------||

G|------------------|------------------||
E|------------------|------------------||
A|----9--8-----8--6-|----6-5-----------||
D|----12-11----11-9-|----9-8-----------||
G|0-0------0-0------|0-0------0-0--/11\||
C|------------------|------------------||

G|------------------|------------------||
E|------------------|------------------||
A|----10-9----9--8--|----8--7----------||
D|----13-12---12-11-|----11-10---------||
G|0-0------0-0------|0-0------0-0--/14\||
C|------------------|------------------||

G|------------------|------------------||
E|------------------|------------------||
A|----9--8----8--7--|----7--5----------||
D|----12-11---11-10-|----10-8----------||
G|0-0------0-0------|0-0------0-0------||
C|------------------|--------------/12\||

  2/4
G|---------|---------|---------|---------||
E|---------|---------|---------|---------||
A|----5/6-5|-----5--4|-----4--3|---------||
D|----8/9-8|-----8--7|-----7--6|---------||
G|---------|---------|---------|---------||
C|4-4------|---------|---------|-1-1-2-3-||

G|---------|---------|---------|---------||
E|---------|---------|---------|---------||
A|----5/6-5|-----5--4|-----4--3|---------||
D|----8/9-8|-----8--7|-----7--6|---------||
G|---------|---------|---------|---------||
C|4-4------|---------|---------|-1-1-2-3-||

  4/4						     2/4
G|---------|---------|---------|---------|---------||-----||
E|---------|---------|---------|---------|---------||-R---||
A|--5-1----|--1-5----|--5-4----|--4-3----|--3-2----||--E--||
D|--8-4----|--4-8----|--8-7----|--7-6----|--6-5----||---S-||
G|---------|---------|---------|---------|---------||----T||
C|4--------|---------|---------|---------|---------||-----||

*******************************************************************************
  7/8
 Note: See chord chart below


G|------1------1----|------2------2----|------3------3----|------2------2----||
E|--1------1--------|--1------1--------|--1------1--------|--1------1--------||
A|4---4---4---4-----|4---4---4---4-----|4---4---4---4-----|4---4---4---4-----||
D|------------------|------------------|------------------|------------------||
G|------------------|------------------|------------------|------------------||
C|------------------|------------------|------------------|------------------||

G|------1------1----|------2------2----|------3------3----|------4------4----||
E|--1------1--------|--1------1--------|--1------1--------|--1------1--------||
A|4---4---4---4-----|4---4---4---4-----|4---4---4---4-----|4---4---4---4-----||
D|------------------|------------------|------------------|------------------||
G|------------------|------------------|------------------|------------------||
C|------------------|------------------|------------------|------------------||

G|------5------5----|------5------5----|------5------5----|------5------5----||
E|--5------5--------|--7------7--------|--7------7--------|--7------7--------||
A|5---5---5---5-----|5---5---5---5-----|8---8---8---8-----|7---7---7---7-----||
D|------------------|------------------|------------------|------------------||
G|------------------|------------------|------------------|------------------||
C|------------------|------------------|------------------|------------------||

G|------8------8----|------8------8----|------8------8----|------8------8----||
E|--10-----10-------|--10-----10-------|--10-----10-------|--10-----10-------||
A|10--10--10--10----|9---9---9---9-----|9---9---9---9-----|8---8---8---8-----||
D|------------------|------------------|------------------|------------------||
G|------------------|------------------|------------------|------------------||
C|------------------|------------------|------------------|------------------||

G|------11-----11---|------11-----11---|------11-----11---|------11-----11---||
E|--11-----11-------|--13-----13-------|--13-----13-------|--13-----13-------||
A|11--11--11--11----|11--11--11--11----|14--14--14--14----|12--12--12--12----||
D|------------------|------------------|------------------|------------------||
G|------------------|------------------|------------------|------------------||
C|------------------|------------------|------------------|------------------||

G|------13-----13---|------13-----13---|------14-----14---|------14-----14---||
E|--13-----13-------|--14-----14-------|--16-----16-------|--16-----16-------||
A|11--11--11--11----|12--12--12--12----|14--14--14--14----|17--17--17--17----||
D|------------------|------------------|------------------|------------------||
G|------------------|------------------|------------------|------------------||
C|------------------|------------------|------------------|------------------||

G|------14-----14---|------14-----14---|------16-----16---|------16-----16---||
E|--16-----16-------|--16-----16-------|--16-----16-------|--16-----16-------||
A|16--16--16--16----|15--15--15--15----|14--14--14--14----|15--15--15--15----||
D|------------------|------------------|------------------|------------------||
G|------------------|------------------|------------------|------------------||
C|------------------|------------------|------------------|------------------||
  
G|------17------17--|------17------17--||
E|--16------16------|--16------16------||
A|15--15--15--15----|15--15--15--15----||
D|------------------|------------------||
G|------------------|------------------||
C|------------------|------------------||

*******************************************************************************
  6/8

G|----------------17|------------------|------------------|------------------||
E|-------------14---|18-17----17--14---|13-12----12--9----|-8--7-----7--4----||
A|----------14------|------17--------14|------12--------9-|-------7--------4-||
D|------------------|------------------|------------------|------------------||
G|------------------|------------------|------------------|------------------||
C|------------------|------------------|------------------|------------------||

  8/4
G|------------------||
E|---R--------------||
A|------E-----------||
D|---------S--------||
G|------------T-----||
C|------------------||

  6/8
G|------------------|------------------|------------------||
E|------------------|------------------|------------------||
A|15-14----14--11---|10--9-----9--6----|-5--4-----4--1----||
D|------14--------11|-------9--------6-|-------4--------1-||
G|------------------|------------------|------------------||
C|------------------|------------------|------------------||

  8/4
G|------------------||
E|---R--------------||
A|------E-----------||
D|---------S--------||
G|------------T-----||
C|------------------||

  6/8
G|------------------|------------------|------------------||
E|------------------|------------------|------------------||
A|17-16----16--13---|12--11----11-8----|-7--6-----6--3----||
D|------16--------13|-------11-------8-|-------6--------3-||
G|------------------|------------------|------------------||
C|------------------|------------------|------------------||

*******************************************************************************
*I had to modify my guitar with heavier and lighter string gauges
 to counter the tuning accordingly.

 For example --- string gauges low to high are:

 1st string/G = 0.008 gauge string
 2nd string/E = 0.010 gauge string
 3rd string/A = 0.016 gauge string
 4th string/D = 0.024 gauge string
 5th string/G = 0.042 gauge string
 6th string/C = 0.052 gauge string
*******************************************************************************
Chord Chart for clean section

+-+-+-+-+-+     +-+-+-+-+-+     +-+-+-+-+-+     +-+-+-+-+-+
| | | | O O 6fr | | | | O | 6fr | | | | O | 6fr | | | | O | 6fr
+-+-+-+-+-+     +-+-+-+-+-+     +-+-+-+-+-+     +-+-+-+-+-+
| | | | | |     | | | | | O     | | | | | |     | | | | | O
+-+-+-+-+-+     +-+-+-+-+-+     +-+-+-+-+-+     +-+-+-+-+-+
| | | | | |     | | | | | |     | | | | | O     | | | | | |
+-+-+-+-+-+     +-+-+-+-+-+     +-+-+-+-+-+     +-+-+-+-+-+
| | | O | |     | | | O | |     | | | O | |     | | | O | |
+-+-+-+-+-+     +-+-+-+-+-+     +-+-+-+-+-+     +-+-+-+-+-+
x x x           x x x           x x x           x x x


+-+-+-+-+-+     +-+-+-+-+-+     +-+-+-+-+-+     +-+-+-+-+-+
| | | | O O 6fr | | | | O | 6fr | | | | O | 6fr | | | | O | 6fr
+-+-+-+-+-+     +-+-+-+-+-+     +-+-+-+-+-+     +-+-+-+-+-+
| | | | | |     | | | | | O     | | | | | |     | | | | | |
+-+-+-+-+-+     +-+-+-+-+-+     +-+-+-+-+-+     +-+-+-+-+-+
| | | | | |     | | | | | |     | | | | | O     | | | | | |
+-+-+-+-+-+     +-+-+-+-+-+     +-+-+-+-+-+     +-+-+-+-+-+
| | | O | |     | | | O | |     | | | O | |     | | | O | O
+-+-+-+-+-+     +-+-+-+-+-+     +-+-+-+-+-+     +-+-+-+-+-+
x x x           x x x           x x x           x x x

*******************************************************************************
*******************************************************************************

+-+-+-+-+-+     +-+-+-+-+-+     +-+-+-+-+-+     +-+-+-+-+-+
| | | O O O 10  | | | O | O 10  | | | | | O 10  | | | | | O 10
+-+-+-+-+-+     +-+-+-+-+-+     +-+-+-+-+-+     +-+-+-+-+-+
| | | | | |     | | | | | |     | | | | | |     | | | O | |
+-+-+-+-+-+     +-+-+-+-+-+     +-+-+-+-+-+     +-+-+-+-+-+
| | | | | |     | | | | O |     | | | | O |     | | | | O |
+-+-+-+-+-+     +-+-+-+-+-+     +-+-+-+-+-+     +-+-+-+-+-+
| | | | | |     | | | | | |     | | | O | |     | | | | | |
+-+-+-+-+-+     +-+-+-+-+-+     +-+-+-+-+-+     +-+-+-+-+-+
x x x           x x x           x x x           x x x


+-+-+-+-+-+     +-+-+-+-+-+     +-+-+-+-+-+     +-+-+-+-+-+
| | | O | | 10  | | | O | | 11  | | | O | O 13  | | | | | O 13
+-+-+-+-+-+     +-+-+-+-+-+     +-+-+-+-+-+     +-+-+-+-+-+
| | | | | |     | | | | | O     | | | | | |     | | | | | |
+-+-+-+-+-+     +-+-+-+-+-+     +-+-+-+-+-+     +-+-+-+-+-+
| | | | O O     | | | | O |     | | | | O |     | | | | O |
+-+-+-+-+-+     +-+-+-+-+-+     +-+-+-+-+-+     +-+-+-+-+-+
| | | | | |     | | | | | |     | | | | | |     | | | O | |
+-+-+-+-+-+     +-+-+-+-+-+     +-+-+-+-+-+     +-+-+-+-+-+
x x x           x x x           x x x           x x x



+-+-+-+-+-+     +-+-+-+-+-+    +-+-+-+-+-+     +-+-+-+-+-+
| | | | | O 13  | | | O | | 13 | | | O | | 14  | | | O | | 13
+-+-+-+-+-+     +-+-+-+-+-+    +-+-+-+-+-+     +-+-+-+-+-+
| | | O | |     | | | | | |    | | | | O O     | | | | | |
+-+-+-+-+-+     +-+-+-+-+-+    +-+-+-+-+-+     +-+-+-+-+-+
| | | | O |     | | | | O O    | | | | | |     | | | | O |
+-+-+-+-+-+     +-+-+-+-+-+    +-+-+-+-+-+     +-+-+-+-+-+
| | | | | |     | | | | | |    | | | | | |     | | | | | O
+-+-+-+-+-+     +-+-+-+-+-+    +-+-+-+-+-+     +-+-+-+-+-+
x x x           x x x


*******************************************************************************
*******************************************************************************

===========     ===========     ===========     ===========
| | | | O O 1st | | | | O | 1st | | | | O | 1st | | | | O | 1st 
+-+-+-+-+-+     +-+-+-+-+-+     +-+-+-+-+-+     +-+-+-+-+-+
| | | | | |     | | | | | O     | | | | | |     | | | | | O
+-+-+-+-+-+     +-+-+-+-+-+     +-+-+-+-+-+     +-+-+-+-+-+
| | | | | |     | | | | | |     | | | | | O     | | | | | |
+-+-+-+-+-+     +-+-+-+-+-+     +-+-+-+-+-+     +-+-+-+-+-+
| | | O | |     | | | O | |     | | | O | |     | | | O | |
+-+-+-+-+-+     +-+-+-+-+-+     +-+-+-+-+-+     +-+-+-+-+-+
x x x           x x x           x x x           x x x


===========     ===========     ===========     ===========
| | | | O O 1st | | | | O | 1st | | | | O | 1st | | | | O | 1st 
+-+-+-+-+-+     +-+-+-+-+-+     +-+-+-+-+-+     +-+-+-+-+-+
| | | | | |     | | | | | O     | | | | | |     | | | | | |
+-+-+-+-+-+     +-+-+-+-+-+     +-+-+-+-+-+     +-+-+-+-+-+
| | | | | |     | | | | | |     | | | | | O     | | | | | |
+-+-+-+-+-+     +-+-+-+-+-+     +-+-+-+-+-+     +-+-+-+-+-+
| | | O | |     | | | O | |     | | | O | |     | | | O | O
+-+-+-+-+-+     +-+-+-+-+-+     +-+-+-+-+-+     +-+-+-+-+-+
x x x           x x x           x x x           x x x


*******************************************************************************
*******************************************************************************

+-+-+-+-+-+     +-+-+-+-+-+     +-+-+-+-+-+     +-+-+-+-+-+
| | | O O O 5fr | | | O | O 5fr | | | | | O 5fr | | | | | O 5fr
+-+-+-+-+-+     +-+-+-+-+-+     +-+-+-+-+-+     +-+-+-+-+-+
| | | | | |     | | | | | |     | | | | | |     | | | | | |
+-+-+-+-+-+     +-+-+-+-+-+     +-+-+-+-+-+     +-+-+-+-+-+
| | | | | |     | | | | O |     | | | | O |     | | | O O |
+-+-+-+-+-+     +-+-+-+-+-+     +-+-+-+-+-+     +-+-+-+-+-+
| | | | | |     | | | | | |     | | | O | |     | | | | | |
+-+-+-+-+-+     +-+-+-+-+-+     +-+-+-+-+-+     +-+-+-+-+-+
x x x           x x x           x x x           x x x


+-+-+-+-+-+     +-+-+-+-+-+     +-+-+-+-+-+     +-+-+-+-+-+
| | | | | O 8fr | | | | | O 8fr | | | | | O 8fr | | | O | O 8fr
+-+-+-+-+-+     +-+-+-+-+-+     +-+-+-+-+-+     +-+-+-+-+-+
| | | | | |     | | | O | |     | | | O | |     | | | | | |
+-+-+-+-+-+     +-+-+-+-+-+     +-+-+-+-+-+     +-+-+-+-+-+
| | | O O |     | | | | O |     | | | | O |     | | | | O |
+-+-+-+-+-+     +-+-+-+-+-+     +-+-+-+-+-+     +-+-+-+-+-+
| | | | | |     | | | | | |     | | | | | |     | | | | | |
+-+-+-+-+-+     +-+-+-+-+-+     +-+-+-+-+-+     +-+-+-+-+-+
x x x           x x x           x x x           x x x


+-+-+-+-+-+     +-+-+-+-+-+     +-+-+-+-+-+     +-+-+-+-+-+
| | | O O O 11  | | | O | O 11  | | | | | O 11  | | | | | O 11
+-+-+-+-+-+     +-+-+-+-+-+     +-+-+-+-+-+     +-+-+-+-+-+
| | | | | |     | | | | | |     | | | | | |     | | | O | |
+-+-+-+-+-+     +-+-+-+-+-+     +-+-+-+-+-+     +-+-+-+-+-+
| | | | | |     | | | | O |     | | | | O |     | | | | O |
+-+-+-+-+-+     +-+-+-+-+-+     +-+-+-+-+-+     +-+-+-+-+-+
| | | | | |     | | | | | |     | | | O | |     | | | | | |
+-+-+-+-+-+     +-+-+-+-+-+     +-+-+-+-+-+     +-+-+-+-+-+
x x x           x x x           x x x           x x x


+-+-+-+-+-+     +-+-+-+-+-+     +-+-+-+-+-+     +-+-+-+-+-+
| | | O | | 11  | | | O | | 12  | | | O | O 14  | | | | | O 14
+-+-+-+-+-+     +-+-+-+-+-+     +-+-+-+-+-+     +-+-+-+-+-+
| | | | | |     | | | | | O     | | | | | |     | | | | | |
+-+-+-+-+-+     +-+-+-+-+-+     +-+-+-+-+-+     +-+-+-+-+-+
| | | | O O     | | | | O |     | | | | O |     | | | | O |
+-+-+-+-+-+     +-+-+-+-+-+     +-+-+-+-+-+     +-+-+-+-+-+
| | | | | |     | | | | | |     | | | | | |     | | | O | |
+-+-+-+-+-+     +-+-+-+-+-+     +-+-+-+-+-+     +-+-+-+-+-+
x x x           x x x           x x x           x x x


+-+-+-+-+-+     +-+-+-+-+-+     +-+-+-+-+-+     +-+-+-+-+-+
| | | | | O 14  | | | | | O 14  | | | O | | 14  | | | O | | 15
+-+-+-+-+-+     +-+-+-+-+-+     +-+-+-+-+-+     +-+-+-+-+-+
| | | | | |     | | | O | |     | | | | | |     | | | | O O
+-+-+-+-+-+     +-+-+-+-+-+     +-+-+-+-+-+     +-+-+-+-+-+
| | | O O |     | | | | O |     | | | | O O     | | | | | |
+-+-+-+-+-+     +-+-+-+-+-+     +-+-+-+-+-+     +-+-+-+-+-+
| | | | | |     | | | | | |     | | | | | |     | | | | | |
+-+-+-+-+-+     +-+-+-+-+-+     +-+-+-+-+-+     +-+-+-+-+-+
x x x           x x x           x x x           x x x


+-+-+-+-+-+
| | | O | | 14
+-+-+-+-+-+
| | | | | |
+-+-+-+-+-+
| | | | O |
+-+-+-+-+-+
| | | | | O
+-+-+-+-+-+
*******************************************************************************
*******************************************************************************
| Legend
| b   Bend
| br  Bend release
| /   slide up
| \   slide down
| h   hammer-on
| ~   vibrato
*******************************************************************************
Views