21st Century Schizoid Man - First Fast 6/8 Section (Tab)

From ETWiki
Jump to: navigation, search

Date Submitted: 9-Feb-97
By: Reginald Hunt (rphunt at tiac dot com)

Fast 6/8 Section****************************************************************

  1   2    3    4    5    6       1   2    3    4    5    6
--------------------------------|-------------------------------|
T-------------------------------|-------------------------------|
A-------------------------------|-------------------------------|
B---------------1----2----3-----|-------------------------------|
--3-3--3--3--3------------------|-3-3--3--3--3--2----1----------|
--------------------------------|-------------------------3-----|



  1   2    3    4    5    6       1   2    3    4    5    6
--------------------------------|-------------------------------|
T-------------------------------|-------------------------------|
A-------------------------------|----------3---------3----4-----|
B---------------1----2----3-----|-4---5---------5---------------|
--3-3--3--3--3------------------|-------------------------------|
--------------------------------|-------------------------------|



  1   2    3    4    5    6       1   2    3    4    5    6
--------------------------------|-------------------------------|
T---------------3----4----5-----|-------------------------------|
A-5-5--5--5---------------------|-5-5--5--5--5--4----3----------|
B-------------------------------|-------------------------5-----|
--------------------------------|-------------------------------|
--------------------------------|-------------------------------|



  1   2    3    4    5    6       1     2     3     4     5     6
--------------------------------|-------------------------------------|
T---------------3----4----5-----|-------------------------------------|
A-5-5--5--5---------------------|-11----12----15----12----15----16----|
B-------------------------------|-------------------------------------|
--------------------------------|-------------------------------------|
--------------------------------|-------------------------------------|



  1   2    3    4    5    6       1   2    3    4    5    6
--------------------------------|-------------------------------|
T-------------------------------|-------------------------------|
A-------------------------------|-------------------------------|
B---------------1----2----3-----|-------------------------------|
--3-3--3--3---------------------|-3-3--3--3-----2----1----------|
--------------------------------|-------------------------3-----|



  1   2    3    4    5    6       1     2     3     4     5     6
--------------------------------|-------------------------------------|
T-------------------------------|-------------------------------------|
A-------------------------------|-------3--------3--------3-----3--4--|
B---------------1----2----3-----|-4-H5-----4-H5-----4-H5-----5--------|
--3-3--3--3---------------------|-------------------------------------|
--------------------------------|-------------------------------------|



  1   2    3    4    5    6       1   2    3    4    5    6
--------------------------------|-------------------------------|
T---------------3----4----5-----|-------------------------------|
A-5-5--5--5---------------------|-5-5--5--5--5--4----3----------|
B-------------------------------|-------------------------5-----|
--------------------------------|-------------------------------|
--------------------------------|-------------------------------|



  1   2    3    4    5    6       1     2     3     4     5     6
--------------------------------|-------------------------------------||
T---------------3----4----5-----|-------------------------------------||
A-5-5--5--5---------------------|-11-12-15-11-12-15-11-12-15-11-12-15-||
B-------------------------------|-------------------------------------||
--------------------------------|-------------------------------------||
--------------------------------|-------------------------------------||
Views