21st Century Schizoid Man - Guitar Solo (Tab)

From ETWiki
Jump to: navigation, search

Date Submitted: 9-Feb-97
By: Reginald Hunt (rphunt at tiac dot com)

Sustain Guitar Solo

    1    2    3    4    5    6       1    2    3    4    5    6
E---11-----------------------------|--------------------------11-----|
B-T----------------8---------------|----------------8^9--------------|
G-A--------------------------------|---------------------------------|
D-B--------------------------------|---------------------------------|
A----------------------------------|---------------------------------|
E----------------------------------|---------------------------------|



    1    2    3    4    5    6       1    2    3    4    5    6
E---11-----------------------------|---------------------------------|
B-T--------------------------------|---------------------------------|
G-A--------------------------------|---------------------------------|
D-B--------------------------------|---------------------------------|
A----------------------------------|---------------------------------|
E----------------------------------|---------------------------------|


                   slowly release bend..................*
    1    2    3    4    5    6       1    2    3    4    5    6
E----------------------------------|---------------------------------|
B-T----------------12^13-----------|---------------------------------|
G-A-/13----------------------------|---------------------12----------|
D-B--------------------------------|--------------------------13-----|
A----------------------------------|---------------------------------|
E----------------------------------|---------------------------------|



    1    2    3    4    5    6       1    2    3    4    5    6
E----------------------------------|---------------------------------|
B-T--------------------------------|---------------------------------|
G-A--------------------------------|---------------------------------|
D-B-\12----------------------------|---------------------13--/16-----|
A----------------------------------|---------------------------------|
E----------------------------------|---------------------------------|



    1    2    3    4    5    6       1    2    3    4    5    6
E----------------------------------|---------------------------------|
B-T--------------------------------|---------------------------------|
G-A-----------12  H14--------------|-----------14--/15-------/17-----|
D-B-16-----------------------------|---------------------------------|
A----------------------------------|---------------------------------|
E----------------------------------|---------------------------------|



    1    2    3      4   5   6       1    2    3    4    5    6
E----------------------------------|---------------------------------|
B-T--------------------------------|---------------------------------|
G-A-/20-------19H20--19------------|---------------------------------|
D-B--------------------------------|---------------------------------|
A----------------------------------|---------------------------------|
E----------------------------------|---------------------------------|



    bend note up slowly.................*
    1    2    3    4    5    6       1    2    3      4   5   6
E----------------------------------|------17-------------------------|
B-T-16^17--------------------------|-----------16^17--16--15-\13-----|
G-A--------------------------------|------------(_____)--------------|
D-B--------------------------------|---------------------------------|
A----------------------------------|---------------------------------|
E----------------------------------|---------------------------------|



    1    2    3      4   5   6       1    2    3    4    5    6
E----------------------------------|---------------------------------|
B-T-15-----------------------------|----------------13 H 15---16-----|
G-A-----------14----\12------------|------14 H 15--------------------|
D-B--------------------------------|---------------------------------|
A----------------------------------|---------------------------------|
E----------------------------------|---------------------------------|



    1    2    3    4    5    6       1    2    3    4    5    6
E----------------------------------|-15-------------17---------------|
B-T-16------------/18--------------|---------------------------------|
G-A--------------------------------|---------------------------------|
D-B--------------------------------|---------------------------------|
A----------------------------------|---------------------------------|
E----------------------------------|---------------------------------|



                                                    bend up slightly ..*
    1    2    3    4    5    6       1    2    3    4    5    6
E---18-------------19--------------|-20-------------22^--22^--22^----|
B-T--------------------------------|---------------------------------|
G-A--------------------------------|---------------------------------|
D-B--------------------------------|---------------------------------|
A----------------------------------|---------------------------------|
E----------------------------------|---------------------------------|



                   trill..........................*
    1    2    3    4    5    6       1    2    3    4    5    6
E---15---17---15---13tr14~~~~~~~~~~~~~~~~~~~~~~~~~-------------------|
B-T--------------------------------|----------------13       P12-----|
G-A--------------------------------|---------------------------------|
D-B--------------------------------|---------------------------------|
A----------------------------------|---------------------------------|
E----------------------------------|---------------------------------|



                    trill....*
    1    2    3    4    5    6       1    2    3    4    5    6
E---14       P12---11tr13~~~~------|---------------------------------|
B-T--------------------------15----|-11-----------------------15-----|
G-A--------------------------------|-----------14---11  H12----------|
D-B--------------------------------|---------------------------------|
A----------------------------------|---------------------------------|
E----------------------------------|---------------------------------|



    1    2    3    4    5    6       1    2    3    4    5    6
E----------------------------------|---------------------------------|
B-T-----------15---12--------------|----------------15---------------|
G-A-11  H12-------------12--\11----|---------------------------------|
D-B--------------------------------|-13  P12  H13-------------12H13--|
A----------------------------------|---------------------------------|
E----------------------------------|---------------------------------|



    1    2    3     4     5     6      1    2    3    4    5    6
E------------------------------------|---------------------------------|
B-T-15--------------15---------------|-15--/16--/15---13---10--H11-----|
G-A----------------------------------|---------------------------------|
D-B----------------------------------|---------------------------------|
A-------------12H13-------------12H13|---------------------------------|
E------------------------------------|---------------------------------|



    1    2    3    4    5    6       1    2    3    4    5    6
E----------------------------------|---------------------------------|
B-T-11-------/12---12-------/13----|-13-------/16---16-------/18-----|
G-A--------------------------------|---------------------------------|
D-B--------------------------------|---------------------------------|
A----------------------------------|---------------------------------|
E----------------------------------|---------------------------------|



    bend up slightly......*          bend up slowly.................
    1    2    3    4    5    6       1    2    3     4     5     6
E----------------------------------|---------------------------------|
B-T-18^--18^--18^--18^-------16P13-|---------------------------------|
G-A--------------------------------|-15^17---------------------------|
D-B--------------------------------|---------------------------------|
A----------------------------------|---------------------------------|
E----------------------------------|---------------------------------|



    ..............................................................*
    1    2    3     4     5     6      1    2    3    4    5    6
E------------------------------------|---------------------------------|
B-T----------------------------------|---------------------------------|
G-A----------------------------------|---------------------------------|
D-B----------------------------------|---------------------------------|
A------------------------------------|---------------------------------|
E------------------------------------|---------------------------------|



    1    2    3    4    5    6       1    2    3    4    5    6
E-------------15-------------------|-----------18^20-----------------|
B-T--------------------------------|-----------x---------------------|
G-A--------------------------------|-----------x--------------15-----|
D-B--------------------------------|---------------------------------|
A----------------------------------|---------------------------------|
E----------------------------------|---------------------------------|



    1    2    3    4    5    6       1    2    3    4    5    6
E----------------------------------|--------------------------18-----|
B-T------13---15---16-------/18----|-15--------18^20-----------(______
G-A-\12----------------------------|----------------(0)--------------|
D-B--------------------------------|---------------------------------|
A----------------------------------|---------------------------------|
E----------------------------------|---------------------------------|



    1    2    3    4    5    6       1    2    3    4    5    6
E---18^20---------------15---13----|---------------------------------|
B-T-__)----------------------------|-16--\13---11--------------------|
G-A-----------(0)------------------|----------------12--\11--\10-----|
D-B--------------------------------|---------------------------------|
A----------------------------------|---------------------------------|
E----------------------------------|---------------------------------|



    1    2    3      4   5   6       1    2    3    4    5    6
E----------------------------------|--------------------------------||
B-T-7        H8------8-------------|--------------------------------||
G-A------------------(0)-----------|--------------------------------||
D-B--------------------------------|--------------------------------||
A----------------------------------|--------------------------------||
E----------------------------------|--------------------------------||
Views