21st Century Schizoid Man - Main Section Including Verses (Tab)

From ETWiki
Jump to: navigation, search

Date Submitted: 9-Feb-97
By: Reginald Hunt (rphunt at tiac dot com)

I find this particular arrangement works for most purposes,
including playing along with the record, or performing in a band.
It is not meant as an exact trancription of the guitar parts
on the album, but 'note-wise' should be accurate.

"3^5" =Play at 3rd fret and bend to 5th fret pitch.
"%" =Play previous measure again.
"5\3" = Slide from 5th fret to 3rd.
"3/5" = Slide from 3rd fret to 5th.
"/" = Under a chord name, this represents strumming the chord.
"3H5" = Play note on 3rd fret and Hammer-on to 5th fret
"5P4" = Play note on 5th fret and Pull-off to 3rd fret


Slow
        1     2     3      4      1    2    3    4
--||----------------------------|----------------------|-------|
T-||--------------------8-------|----------------------|--2----|
A-||*---5-----3-5-8-10--8-------|----------------------|--%----|
B-||*---5-----3-5-8-10--10------|-3------4-------5-----|-------|
--||----3-----1-3-6-8-----------|-3------4-------5-----|-------|
--||----------------------------|-1------2-------3-----|-------|



   1     2     3      4      1     2        3    4
---------------------------|-13-------14---------15----|
T------------------8-------|-16^18----17^19------18^20-|
A--5-----3-5-8-10--8-------|---------------------------|
B--5-----3-5-8-10--10------|---------------------------|
---3-----1-3-6-8-----------|---------------------------|
---------------------------|---------------------------|



Verse***************************************************************************

     Cm7                           Bb
       x
 -----------                    -----------
 | | | | * |  4th fret          | | * * * | 3rd fret
 -----------                    -----------
 | | * | | |                    | | | | | |
 -----------                    -----------
 | | | | | *                    | | | | | |
 -----------                    -----------
 | | | | | |                    | | | | | *
 -----------                    -----------


   Cm7                           Bb
   1   2   3   4                  1   2   3   4
--------------------|-----|-----|--------------------||
T-------------------|-----|-----|--------------------|| continue after
A--/---/---/---/----|--%--|--%--|-/-----------------*|| 2nd verse
B-------------------|-----|-----|-------------------*||
--------------------|-----|-----|--------------------|| (and after 3rd verse)
--------------------|-----|-----|--------------------||



    1     2     3       4     1   2     3    4
----------------------------|----------------------|
T-------------------8-------|----------------------|
A---5-----3-5-8-10--8-------|----------------------|
B---5-----3-5-8-10--10------|-3------4-------5-----|
----3-----1-3-6-8-----------|-3------4-------5-----|
----------------------------|-1------2-------3-----|



   1     2     3      4      1     2        3    4
---------------------------|-13-------14---------15----|
T------------------8-------|-16^18----17^19------18^20-|
A--5-----3-5-8-10--8-------|---------------------------|
B--5-----3-5-8-10--10------|---------------------------|
---3-----1-3-6-8-----------|---------------------------|
---------------------------|---------------------------|



    1     2     3       4     1   2     3    4       1   2     3    4
----------------------------|----------------------|----------------------|
T-------------------8-------|----------------------|----------------------|
A---5-----3-5-8-10--8-------|----------------------|----------------------|
B---5-----3-5-8-10--10------|-3------4-------5-----|-3------4-------5-----|
----3-----1-3-6-8-----------|-3------4-------5-----|-3------4-------5-----|
----------------------------|-1------2-------3-----|-1------2-------3-----|



                           Faster
   1   2   3   4   5   6     1   2   3   4   5   6
--------------------------|-------------------------|
T-------------------------|-------------------------|
A-------------------------|-------------------------|
B--------------3---4---5--|--------------3---4---5--|
--------------------------|-------------------------|
---1---2---3--------------|--1---2---3--------------|



Faster
   1   2   3   4   5   6     1   2   3   4   5   6
--------------------------|-------------------------||
T-------------------------|-------------------------||
A-------------------------|-------------------------||
B--------------3---4---5--|--------------3---4---5--||
--------------------------|-------------------------||
---1---2---3--------------|--1---2---3--------------||
Views