21st Century Schizoid Man - Rapid "Tutti" Section (Tab)

From ETWiki
Jump to: navigation, search

Date Submitted: 9-Feb-97
By: Reginald Hunt (rphunt at tiac dot com)

Fast tutti section

"*"'s indicate 1/16 note beats

     *   *   *   *   *   *   *   *   *   *   *   *   *   *   *   *
E--------------------------------------------------------------------|
B-T----------------------------------------------3-------------------|
G-A------------------------------------------3-------6P5P3---3---6---|
D-B----------------------3-----------3---5---------------------------|
A------------3---4---5-------4---5-----------------------------------|
E----3---6-----------------------------------------------------------|



     *   *   *   *   *   *   *   *   *   *   *   *   *   *   *   *
E--------------------------------------------------------------------|
B-T----------6-----------8-------------------------------------------|
G-A--7---7-------6---5-----------------------------------------------|
D-B------------------------------------------------------------------|
A--------------------------------------------------------------------|
E--------------------------------------------------------------------|



     *   *   *   *   *   *   *   *   *   *   *   *   *   *   *   *
E--------------------------------------------------------------------|
B-T----------------------------------------------3-------------------|
G-A------------------------------------------3-------6P5P3---3---6---|
D-B----------------------3-----------3---5---------------------------|
A------------3---4---5-------4---5-----------------------------------|
E----3---6-----------------------------------------------------------|



     *   *   *   *   *   *   *   *   *   *   *   *   *   *   *   *
E--------------------------------------------------------------------|
B-T----------6-----------8-------------------------------------------|
G-A--7---7-------6---5-----------6---5-------3-----------------------|
D-B----------------------------------------------5-------3-----------|
A------------------------------------------------------------5-------|
E--------------------------------------------------------------------|



     *   *   *   *   *   *   *   *   *   *   *   *   *   *   *   *
E--------------------------------------------------------------------|
B-T------------------------------------------------------------------|
G-A--------------0---3-------0---7-------0---5-------0---3-------0---|
D-B------------------------------------------------------------------|
A----3---6---7-------------------------------------------------------|
E--------------------------------------------------------------------|



     *   *   *   *   *   *   *   *   *   *   *   *   *   *   *   *
E--------------------------------------------------------------------|
B-T------------------------------------------------------------------|
G-A--5-------0---7---------------------------------------------------|
D-B----------------------5---3---------------------------------------|
A------------------------------------5-------4-------3---------------|
E------------------------------------------------------------6-------|



     *   *   *   *   *   *   *   *   *   *   *   *   *   *   *   *
E--------------------------------------------------------------------|
B-T----------------------------------------------3-------------------|
G-A------------------------------------------3-------6P5P3---3---6---|
D-B----------------------3-----------3---5---------------------------|
A------------3---4---5-------4---5-----------------------------------|
E----3---6-----------------------------------------------------------|



     *   *   *   *   *   *   *   *   *   *   *   *   *   *   *   *
E--------------------------------------------------------------------|
B-T----------6-----------8-------------------------------------------|
G-A--7---7-------6---5-----------------------------------------------|
D-B------------------------------------------------------------------|
A--------------------------------------------------------------------|
E--------------------------------------------------------------------|



     *   *   *   *   *   *   *   *   *   *   *   *   *   *   *   *
E--------------------------------------------------------------------|
B-T----------6-----------6-------------------------------------------|
G-A--6---7-------6---7-----------------------------------------------|
D-B------------------------------------------------------------------|
A--------------------------------------------------------------------|
E--------------------------------------------------------------------|



     *   *   *   *   *   *   *   *   *   *   *   *   *   *   *   *
E--------------------------------------------------------------------|
B-T----------6-------------------------------------------------------|
G-A--6---7-------7---6---5-------------------------------------------|
D-B------------------------------------------------------------------|
A--------------------------------------------------------------------|
E--------------------------------------------------------------------|



     *   *   *   *   *   *   *   *   *   *   *   *   *   *   *   *
E--------------------------------------------------------------------|
B-T------------------6---8-------------------------------------------|
G-A----------6---7---------------6---5-------------------------------|
D-B------------------------------------------8---5-------------------|
A--------------------------------------------------------8---5-------|
E--------------------------------------------------------------------|



     *   *   *   *   *   *   *   *   *   *   *   *   *   *   *   *
E--------------------------------------------------------------------|
B-T------------------6---8-------------------------------------------|
G-A----------6---7---------------6---5-------------------------------|
D-B------------------------------------------8---5-------------------|
A--------------------------------------------------------5---3-------|
E----------------------------------------------------------------6---|



     mute strings with side of pick hand..............................

     *   *   *   *   *   *   *   *   *   *   *   *   *   *   *   *
E--------------------------------------------------------------------|
B-T------------------------------------------------------------------|
G-A------------------------------------------------------------------|
D-B------------------3-------0---7-------0---5-------0---3-------0---|
A------------3---5---------------------------------------------------|
E----3---6-----------------------------------------------------------|

    ..................................................................

     *   *   *   *   *   *   *   *   *   *   *   *   *   *   *   *
E--------------------------------------------------------------------|
B-T------------------------------------------------------------------|
G-A------------------------------------------------------------------|
D-B--5-------0---7-------0---3-------5-------4-------3-------8-------|
A--------------------------------------------------------------------|
E--------------------------------------------------------------------|

repeat previous 2 measures

    ..................................................................

     *   *   *   *   *   *   *   *   *   *   *   *   *   *   *   *
E--------------------------------------------------------------------|
B-T------------------------------------------------------------------|
G-A--------------0---3-------0---7-------0---5-------0---3-------0---|
D-B------------------------------------------------------------------|
A----3---6---7-------------------------------------------------------|
E--------------------------------------------------------------------|


    .................................................................*

     *   *   *   *   *   *   *   *   *   *   *   *   *   *   *   *
E--------------------------------------------------------------------|
B-T------------------------------------------------------------------|
G-A--5-------0---7---------------------------------------------------|
D-B----------------------5---3-------5-------4-------3-------8-------|
A--------------------------------------------------------------------|
E--------------------------------------------------------------------|



     *   *   *   *   *   *   *   *   *   *   *   *   *   *   *   *
E--------------------------------------------------------------------|
B-T----------------------------------------------3-------------------|
G-A------------------------------------------3-------6P5P3---3---6---|
D-B----------------------3-----------3---5---------------------------|
A------------3---4---5-------4---5-----------------------------------|
E----3---6-----------------------------------------------------------|



     *   *   *   *   *   *   *   *   *   *   *   *   *   *   *   *
E--------------------------------------------------------------------|
B-T----------6-----------8-------------------------------------------|
G-A--7---7-------6---5-----------------------------------------------|
D-B------------------------------------------------------------------|
A--------------------------------------------------------------------|
E--------------------------------------------------------------------|



     *   *   *   *   *   *   *   *   *   *   *   *   *   *   *   *
E--------------------------------------------------------------------|
B-T----------6-----------6-------------------------------------------|
G-A--6---7-------6---7-----------------------------------------------|
D-B------------------------------------------------------------------|
A--------------------------------------------------------------------|
E--------------------------------------------------------------------|



     *   *   *   *   *   *   *   *   *   *   *   *   *   *   *   *
E--------------------------------------------------------------------|
B-T----------6-------------------------------------------------------|
G-A--6---7-------7---6---5-------------------------------------------|
D-B------------------------------------------------------------------|
A--------------------------------------------------------------------|
E--------------------------------------------------------------------|



     *   *   *   *   *   *   *   *   *   *   *   *   *   *   *   *
E--------------------------------------------------------------------|
B-T------------------6---8-------------------------------------------|
G-A----------6---7---------------6---5-------------------------------|
D-B------------------------------------------8---5-------------------|
A--------------------------------------------------------8---5-------|
E--------------------------------------------------------------------|



     *   *   *   *   *   *   *   *   *   *   *   *   *   *   *   *
E--------------------------------------------------------------------|
B-T------------------6---8-------------------------------------------|
G-A----------6---7---------------6---5-------------------------------|
D-B------------------------------------------8---5-------------------|
A--------------------------------------------------------5---3-------|
E----------------------------------------------------------------6---|



     *   *   *   *   *   *   *   *   *   *   *   *   *   *   *   *
E-------------------------------------------------------------------||
B-T-----------------------------------------------------------------||
G-A-----------------------------------------------------------------||
D-B-----------------------------------------------------------------||
A-------------------------------------------------------------------||
E----3--------------------------------------------------------------||
Views