21st Century Schizoid Man - Second 6/8 Section (Tab)

From ETWiki
Jump to: navigation, search

Date Submitted: 9-Feb-97
By: Reginald Hunt (rphunt at tiac dot com)

2nd 6/8 section *************************************************************

See section below for sustain guitar part.

  1    2    3                1   2    3
---------------|-----|-----|-------------|
T--------------|-----|-----|-------------|  Play this twice.
A---15---10-12-|--%--|--%--|-10\-8----5--|
B--------------|-----|-----|-------------|
----13---8--10-|-----|-----|-8-\-6----3--|
---------------|-----|-----|-------------|



  1    2    3                1   2    3
---------------|-----|-----|-------------|
T--------------|-----|-----|-------------|
A---12---8--10-|--%--|--%--|-10\-8----5--|
B--------------|-----|-----|-------------|
----10---6--8--|-----|-----|-8-\-6----3--|
---------------|-----|-----|-------------|



  1    2    3                1   2    3
---------------|-----|-----|-------------||
T--------------|-----|-----|-------------|| Play this three times.
A---15---10-12-|--%--|--%--|-10\-8----5--||
B--------------|-----|-----|-------------||
----13---8--10-|-----|-----|-8-\-6----3--||
---------------|-----|-----|-------------||


Sustain guitar part played along with 2nd section *******************


  1  2  3  4  5  6    1  2  3  4  5     6
---------------------|------------------11---|
T-8------------------|8--------10-10^11------|
A-(___________________)--------(___)---------|
B--------------------|-----------------------|
---------------------|-----------------------|
---------------------|-----------------------|



  1  2  3  4  5  6    1  2  3  4  5     6
---------------------|------------------11---|
T-8------------------|8--------10-10^11--(_____
A-(___________________)--------(___)---------|
B--------------------|-----------------------|
---------------------|-----------------------|
---------------------|-----------------------|



  1  2  3  4  5  6    1  2  3  4     5  6
---------------------|11---------------------|
T-____________________)--------10^11-10-8----|
A--------------------|---------(______)-(______
B--------------------|-----------------------|
---------------------|-----------------------|
---------------------|-----------------------|



  1  2  3  4  5  6    1  2  3  4  5     6
---------------------|------------------11---|
T--------------------|8--------10-10^11------|
A-____________________)--------(___)---------|
B--------------------|-----------------------|
---------------------|-----------------------|
---------------------|-----------------------|



  1  2  3  4  5  6    1  2  3  4  5     6
---------------------|------------------11---|-----||
T-8------------------|8--------10-10^11------|-----||
A-(___________________)--------(___)---------|--%--||
B--------------------|-----------------------|-----||
---------------------|-----------------------|-----||
---------------------|-----------------------|-----||
Views